ISO-10303-21;
HEADER;
/* Generated by software containing ST-Developer
 * from STEP Tools, Inc. (www.steptools.com) 
 */

FILE_DESCRIPTION(
/* description */ (''),
/* implementation_level */ '2;1');

FILE_NAME(
/* name */ 'H:\\cad\\neutral\\3d\\73455\\vs_14_es.stp',
/* time_stamp */ '2016-07-11T11:06:56+02:00',
/* author */ ('leitheu\X\DFer'),
/* organization */ (''),
/* preprocessor_version */ 'ST-DEVELOPER v16.5',
/* originating_system */ 'Autodesk Inventor 2017',
/* authorisation */ '');

FILE_SCHEMA (('AUTOMOTIVE_DESIGN { 1 0 10303 214 3 1 1 }'));
ENDSEC;

DATA;
#10=MECHANICAL_DESIGN_GEOMETRIC_PRESENTATION_REPRESENTATION('',(#17),#424);
#11=ITEM_DEFINED_TRANSFORMATION($,$,#250,#275);
#12=(
REPRESENTATION_RELATIONSHIP($,$,#437,#436)
REPRESENTATION_RELATIONSHIP_WITH_TRANSFORMATION(#11)
SHAPE_REPRESENTATION_RELATIONSHIP()
);
#13=CONTEXT_DEPENDENT_SHAPE_REPRESENTATION(#12,#435);
#14=NEXT_ASSEMBLY_USAGE_OCCURRENCE('DIN 908 (Rohrgewinde) G 0,25 A:1',
'DIN 908 (Rohrgewinde) G 0,25 A:1','DIN 908 (Rohrgewinde) G 0,25 A:1',#439,
#440,'DIN 908 (Rohrgewinde) G 0,25 A:1');
#15=SHAPE_REPRESENTATION_RELATIONSHIP('SRR','None',#437,#16);
#16=ADVANCED_BREP_SHAPE_REPRESENTATION('',(#18),#423);
#17=STYLED_ITEM('',(#242),#18);
#18=MANIFOLD_SOLID_BREP('Solid1',#235);
#19=TOROIDAL_SURFACE('',#272,6.1237,0.4012);
#20=LINE('',#360,#32);
#21=LINE('',#362,#33);
#22=LINE('',#363,#34);
#23=LINE('',#370,#35);
#24=LINE('',#371,#36);
#25=LINE('',#378,#37);
#26=LINE('',#379,#38);
#27=LINE('',#386,#39);
#28=LINE('',#387,#40);
#29=LINE('',#394,#41);
#30=LINE('',#395,#42);
#31=LINE('',#400,#43);
#32=VECTOR('',#294,10.);
#33=VECTOR('',#295,10.);
#34=VECTOR('',#296,10.);
#35=VECTOR('',#299,10.);
#36=VECTOR('',#300,10.);
#37=VECTOR('',#303,10.);
#38=VECTOR('',#304,10.);
#39=VECTOR('',#307,10.);
#40=VECTOR('',#308,10.);
#41=VECTOR('',#311,10.);
#42=VECTOR('',#312,10.);
#43=VECTOR('',#315,10.);
#44=(
BOUNDED_CURVE()
B_SPLINE_CURVE(2,(#356,#357,#358),.UNSPECIFIED.,.F.,.F.)
B_SPLINE_CURVE_WITH_KNOTS((3,3),(0.,0.350530841423378),.UNSPECIFIED.)
CURVE()
GEOMETRIC_REPRESENTATION_ITEM()
RATIONAL_B_SPLINE_CURVE((1.,1.15470053837925,1.))
REPRESENTATION_ITEM('')
);
#45=(
BOUNDED_CURVE()
B_SPLINE_CURVE(2,(#366,#367,#368),.UNSPECIFIED.,.F.,.F.)
B_SPLINE_CURVE_WITH_KNOTS((3,3),(0.,0.350530841423378),.UNSPECIFIED.)
CURVE()
GEOMETRIC_REPRESENTATION_ITEM()
RATIONAL_B_SPLINE_CURVE((1.,1.15470053837925,1.))
REPRESENTATION_ITEM('')
);
#46=(
BOUNDED_CURVE()
B_SPLINE_CURVE(2,(#374,#375,#376),.UNSPECIFIED.,.F.,.F.)
B_SPLINE_CURVE_WITH_KNOTS((3,3),(0.,0.350530841423377),.UNSPECIFIED.)
CURVE()
GEOMETRIC_REPRESENTATION_ITEM()
RATIONAL_B_SPLINE_CURVE((1.,1.15470053837925,1.))
REPRESENTATION_ITEM('')
);
#47=(
BOUNDED_CURVE()
B_SPLINE_CURVE(2,(#382,#383,#384),.UNSPECIFIED.,.F.,.F.)
B_SPLINE_CURVE_WITH_KNOTS((3,3),(0.,0.350530841423378),.UNSPECIFIED.)
CURVE()
GEOMETRIC_REPRESENTATION_ITEM()
RATIONAL_B_SPLINE_CURVE((1.,1.15470053837925,1.))
REPRESENTATION_ITEM('')
);
#48=(
BOUNDED_CURVE()
B_SPLINE_CURVE(2,(#390,#391,#392),.UNSPECIFIED.,.F.,.F.)
B_SPLINE_CURVE_WITH_KNOTS((3,3),(0.,0.350530841423378),.UNSPECIFIED.)
CURVE()
GEOMETRIC_REPRESENTATION_ITEM()
RATIONAL_B_SPLINE_CURVE((1.,1.15470053837926,1.))
REPRESENTATION_ITEM('')
);
#49=(
BOUNDED_CURVE()
B_SPLINE_CURVE(2,(#397,#398,#399),.UNSPECIFIED.,.F.,.F.)
B_SPLINE_CURVE_WITH_KNOTS((3,3),(0.,0.350530841423378),.UNSPECIFIED.)
CURVE()
GEOMETRIC_REPRESENTATION_ITEM()
RATIONAL_B_SPLINE_CURVE((1.,1.15470053837925,1.))
REPRESENTATION_ITEM('')
);
#50=PLANE('',#256);
#51=PLANE('',#257);
#52=PLANE('',#258);
#53=PLANE('',#259);
#54=PLANE('',#260);
#55=PLANE('',#261);
#56=PLANE('',#262);
#57=PLANE('',#264);
#58=PLANE('',#268);
#59=CYLINDRICAL_SURFACE('',#254,6.5785);
#60=CYLINDRICAL_SURFACE('',#266,9.);
#61=FACE_BOUND('',#86,.T.);
#62=FACE_BOUND('',#88,.T.);
#63=FACE_BOUND('',#98,.T.);
#64=FACE_BOUND('',#100,.T.);
#65=FACE_BOUND('',#102,.T.);
#66=FACE_BOUND('',#104,.T.);
#67=FACE_BOUND('',#106,.T.);
#68=FACE_BOUND('',#108,.T.);
#69=FACE_OUTER_BOUND('',#85,.T.);
#70=FACE_OUTER_BOUND('',#87,.T.);
#71=FACE_OUTER_BOUND('',#89,.T.);
#72=FACE_OUTER_BOUND('',#90,.T.);
#73=FACE_OUTER_BOUND('',#91,.T.);
#74=FACE_OUTER_BOUND('',#92,.T.);
#75=FACE_OUTER_BOUND('',#93,.T.);
#76=FACE_OUTER_BOUND('',#94,.T.);
#77=FACE_OUTER_BOUND('',#95,.T.);
#78=FACE_OUTER_BOUND('',#96,.T.);
#79=FACE_OUTER_BOUND('',#97,.T.);
#80=FACE_OUTER_BOUND('',#99,.T.);
#81=FACE_OUTER_BOUND('',#101,.T.);
#82=FACE_OUTER_BOUND('',#103,.T.);
#83=FACE_OUTER_BOUND('',#105,.T.);
#84=FACE_OUTER_BOUND('',#107,.T.);
#85=EDGE_LOOP('',(#163));
#86=EDGE_LOOP('',(#164));
#87=EDGE_LOOP('',(#165));
#88=EDGE_LOOP('',(#166));
#89=EDGE_LOOP('',(#167));
#90=EDGE_LOOP('',(#168,#169,#170,#171));
#91=EDGE_LOOP('',(#172,#173,#174,#175));
#92=EDGE_LOOP('',(#176,#177,#178,#179));
#93=EDGE_LOOP('',(#180,#181,#182,#183));
#94=EDGE_LOOP('',(#184,#185,#186,#187));
#95=EDGE_LOOP('',(#188,#189,#190,#191));
#96=EDGE_LOOP('',(#192,#193,#194,#195,#196,#197));
#97=EDGE_LOOP('',(#198));
#98=EDGE_LOOP('',(#199,#200,#201,#202,#203,#204));
#99=EDGE_LOOP('',(#205));
#100=EDGE_LOOP('',(#206));
#101=EDGE_LOOP('',(#207));
#102=EDGE_LOOP('',(#208));
#103=EDGE_LOOP('',(#209));
#104=EDGE_LOOP('',(#210));
#105=EDGE_LOOP('',(#211));
#106=EDGE_LOOP('',(#212));
#107=EDGE_LOOP('',(#213));
#108=EDGE_LOOP('',(#214));
#109=CIRCLE('',#252,6.5785);
#110=CIRCLE('',#253,5.7225);
#111=CIRCLE('',#255,6.5785);
#112=CIRCLE('',#265,9.);
#113=CIRCLE('',#267,9.);
#114=CIRCLE('',#269,6.5785);
#115=CIRCLE('',#271,5.77589155212822);
#116=CIRCLE('',#273,6.11592449966821);
#117=VERTEX_POINT('',#345);
#118=VERTEX_POINT('',#347);
#119=VERTEX_POINT('',#350);
#120=VERTEX_POINT('',#354);
#121=VERTEX_POINT('',#355);
#122=VERTEX_POINT('',#359);
#123=VERTEX_POINT('',#361);
#124=VERTEX_POINT('',#365);
#125=VERTEX_POINT('',#369);
#126=VERTEX_POINT('',#373);
#127=VERTEX_POINT('',#377);
#128=VERTEX_POINT('',#381);
#129=VERTEX_POINT('',#385);
#130=VERTEX_POINT('',#389);
#131=VERTEX_POINT('',#393);
#132=VERTEX_POINT('',#403);
#133=VERTEX_POINT('',#406);
#134=VERTEX_POINT('',#409);
#135=VERTEX_POINT('',#412);
#136=VERTEX_POINT('',#415);
#137=EDGE_CURVE('',#117,#117,#109,.T.);
#138=EDGE_CURVE('',#118,#118,#110,.T.);
#139=EDGE_CURVE('',#119,#119,#111,.T.);
#140=EDGE_CURVE('',#120,#121,#44,.T.);
#141=EDGE_CURVE('',#120,#122,#20,.T.);
#142=EDGE_CURVE('',#123,#122,#21,.T.);
#143=EDGE_CURVE('',#121,#123,#22,.T.);
#144=EDGE_CURVE('',#124,#120,#45,.T.);
#145=EDGE_CURVE('',#124,#125,#23,.T.);
#146=EDGE_CURVE('',#122,#125,#24,.T.);
#147=EDGE_CURVE('',#126,#124,#46,.T.);
#148=EDGE_CURVE('',#126,#127,#25,.T.);
#149=EDGE_CURVE('',#125,#127,#26,.T.);
#150=EDGE_CURVE('',#128,#126,#47,.T.);
#151=EDGE_CURVE('',#129,#128,#27,.T.);
#152=EDGE_CURVE('',#127,#129,#28,.T.);
#153=EDGE_CURVE('',#121,#130,#48,.T.);
#154=EDGE_CURVE('',#131,#123,#29,.T.);
#155=EDGE_CURVE('',#130,#131,#30,.T.);
#156=EDGE_CURVE('',#130,#128,#49,.T.);
#157=EDGE_CURVE('',#129,#131,#31,.T.);
#158=EDGE_CURVE('',#132,#132,#112,.T.);
#159=EDGE_CURVE('',#133,#133,#113,.T.);
#160=EDGE_CURVE('',#134,#134,#114,.T.);
#161=EDGE_CURVE('',#135,#135,#115,.T.);
#162=EDGE_CURVE('',#136,#136,#116,.T.);
#163=ORIENTED_EDGE('',*,*,#137,.T.);
#164=ORIENTED_EDGE('',*,*,#138,.T.);
#165=ORIENTED_EDGE('',*,*,#139,.T.);
#166=ORIENTED_EDGE('',*,*,#137,.F.);
#167=ORIENTED_EDGE('',*,*,#138,.F.);
#168=ORIENTED_EDGE('',*,*,#140,.F.);
#169=ORIENTED_EDGE('',*,*,#141,.T.);
#170=ORIENTED_EDGE('',*,*,#142,.F.);
#171=ORIENTED_EDGE('',*,*,#143,.F.);
#172=ORIENTED_EDGE('',*,*,#144,.F.);
#173=ORIENTED_EDGE('',*,*,#145,.T.);
#174=ORIENTED_EDGE('',*,*,#146,.F.);
#175=ORIENTED_EDGE('',*,*,#141,.F.);
#176=ORIENTED_EDGE('',*,*,#147,.F.);
#177=ORIENTED_EDGE('',*,*,#148,.T.);
#178=ORIENTED_EDGE('',*,*,#149,.F.);
#179=ORIENTED_EDGE('',*,*,#145,.F.);
#180=ORIENTED_EDGE('',*,*,#150,.F.);
#181=ORIENTED_EDGE('',*,*,#151,.F.);
#182=ORIENTED_EDGE('',*,*,#152,.F.);
#183=ORIENTED_EDGE('',*,*,#148,.F.);
#184=ORIENTED_EDGE('',*,*,#153,.F.);
#185=ORIENTED_EDGE('',*,*,#143,.T.);
#186=ORIENTED_EDGE('',*,*,#154,.F.);
#187=ORIENTED_EDGE('',*,*,#155,.F.);
#188=ORIENTED_EDGE('',*,*,#156,.F.);
#189=ORIENTED_EDGE('',*,*,#155,.T.);
#190=ORIENTED_EDGE('',*,*,#157,.F.);
#191=ORIENTED_EDGE('',*,*,#151,.T.);
#192=ORIENTED_EDGE('',*,*,#150,.T.);
#193=ORIENTED_EDGE('',*,*,#147,.T.);
#194=ORIENTED_EDGE('',*,*,#144,.T.);
#195=ORIENTED_EDGE('',*,*,#140,.T.);
#196=ORIENTED_EDGE('',*,*,#153,.T.);
#197=ORIENTED_EDGE('',*,*,#156,.T.);
#198=ORIENTED_EDGE('',*,*,#158,.F.);
#199=ORIENTED_EDGE('',*,*,#152,.T.);
#200=ORIENTED_EDGE('',*,*,#157,.T.);
#201=ORIENTED_EDGE('',*,*,#154,.T.);
#202=ORIENTED_EDGE('',*,*,#142,.T.);
#203=ORIENTED_EDGE('',*,*,#146,.T.);
#204=ORIENTED_EDGE('',*,*,#149,.T.);
#205=ORIENTED_EDGE('',*,*,#159,.F.);
#206=ORIENTED_EDGE('',*,*,#158,.T.);
#207=ORIENTED_EDGE('',*,*,#159,.T.);
#208=ORIENTED_EDGE('',*,*,#160,.F.);
#209=ORIENTED_EDGE('',*,*,#161,.F.);
#210=ORIENTED_EDGE('',*,*,#160,.T.);
#211=ORIENTED_EDGE('',*,*,#162,.F.);
#212=ORIENTED_EDGE('',*,*,#161,.T.);
#213=ORIENTED_EDGE('',*,*,#139,.F.);
#214=ORIENTED_EDGE('',*,*,#162,.T.);
#215=CONICAL_SURFACE('',#251,6.1505,46.2241331370771);
#216=CONICAL_SURFACE('',#263,1.73205080756888,60.);
#217=CONICAL_SURFACE('',#270,6.17719577606411,29.897286211995);
#218=CONICAL_SURFACE('',#274,6.34721224983411,88.8895033737951);
#219=ADVANCED_FACE('',(#69,#61),#215,.T.);
#220=ADVANCED_FACE('',(#70,#62),#59,.T.);
#221=ADVANCED_FACE('',(#71),#50,.T.);
#222=ADVANCED_FACE('',(#72),#51,.F.);
#223=ADVANCED_FACE('',(#73),#52,.F.);
#224=ADVANCED_FACE('',(#74),#53,.F.);
#225=ADVANCED_FACE('',(#75),#54,.F.);
#226=ADVANCED_FACE('',(#76),#55,.F.);
#227=ADVANCED_FACE('',(#77),#56,.F.);
#228=ADVANCED_FACE('',(#78),#216,.F.);
#229=ADVANCED_FACE('',(#79,#63),#57,.T.);
#230=ADVANCED_FACE('',(#80,#64),#60,.T.);
#231=ADVANCED_FACE('',(#81,#65),#58,.T.);
#232=ADVANCED_FACE('',(#82,#66),#217,.T.);
#233=ADVANCED_FACE('',(#83,#67),#19,.F.);
#234=ADVANCED_FACE('',(#84,#68),#218,.T.);
#235=CLOSED_SHELL('',(#219,#220,#221,#222,#223,#224,#225,#226,#227,#228,
#229,#230,#231,#232,#233,#234));
#236=DATE_TIME_ROLE('creation_date');
#237=APPLIED_DATE_AND_TIME_ASSIGNMENT(#238,#236,(#440));
#238=DATE_AND_TIME(#239,#240);
#239=CALENDAR_DATE(2016,21,2);
#240=LOCAL_TIME(23,50,34.,#241);
#241=COORDINATED_UNIVERSAL_TIME_OFFSET(0,0,.BEHIND.);
#242=PRESENTATION_STYLE_ASSIGNMENT((#243));
#243=SURFACE_STYLE_USAGE(.BOTH.,#244);
#244=SURFACE_SIDE_STYLE('',(#245));
#245=SURFACE_STYLE_FILL_AREA(#246);
#246=FILL_AREA_STYLE('',(#247));
#247=FILL_AREA_STYLE_COLOUR('',#248);
#248=COLOUR_RGB('',0.745098039215686,0.737254901960784,0.729411764705882);
#249=AXIS2_PLACEMENT_3D('placement',#342,#276,#277);
#250=AXIS2_PLACEMENT_3D('placement',#343,#278,#279);
#251=AXIS2_PLACEMENT_3D('',#344,#280,#281);
#252=AXIS2_PLACEMENT_3D('',#346,#282,#283);
#253=AXIS2_PLACEMENT_3D('',#348,#284,#285);
#254=AXIS2_PLACEMENT_3D('',#349,#286,#287);
#255=AXIS2_PLACEMENT_3D('',#351,#288,#289);
#256=AXIS2_PLACEMENT_3D('',#352,#290,#291);
#257=AXIS2_PLACEMENT_3D('',#353,#292,#293);
#258=AXIS2_PLACEMENT_3D('',#364,#297,#298);
#259=AXIS2_PLACEMENT_3D('',#372,#301,#302);
#260=AXIS2_PLACEMENT_3D('',#380,#305,#306);
#261=AXIS2_PLACEMENT_3D('',#388,#309,#310);
#262=AXIS2_PLACEMENT_3D('',#396,#313,#314);
#263=AXIS2_PLACEMENT_3D('',#401,#316,#317);
#264=AXIS2_PLACEMENT_3D('',#402,#318,#319);
#265=AXIS2_PLACEMENT_3D('',#404,#320,#321);
#266=AXIS2_PLACEMENT_3D('',#405,#322,#323);
#267=AXIS2_PLACEMENT_3D('',#407,#324,#325);
#268=AXIS2_PLACEMENT_3D('',#408,#326,#327);
#269=AXIS2_PLACEMENT_3D('',#410,#328,#329);
#270=AXIS2_PLACEMENT_3D('',#411,#330,#331);
#271=AXIS2_PLACEMENT_3D('',#413,#332,#333);
#272=AXIS2_PLACEMENT_3D('',#414,#334,#335);
#273=AXIS2_PLACEMENT_3D('',#416,#336,#337);
#274=AXIS2_PLACEMENT_3D('',#417,#338,#339);
#275=AXIS2_PLACEMENT_3D('',#418,#340,#341);
#276=DIRECTION('axis',(0.,0.,1.));
#277=DIRECTION('refdir',(1.,0.,0.));
#278=DIRECTION('axis',(0.,0.,1.));
#279=DIRECTION('refdir',(1.,0.,0.));
#280=DIRECTION('center_axis',(-1.,-3.10174063418113E-16,0.));
#281=DIRECTION('ref_axis',(1.44294860410548E-16,-1.,0.));
#282=DIRECTION('center_axis',(1.,3.10174063418113E-16,0.));
#283=DIRECTION('ref_axis',(0.,-1.,0.));
#284=DIRECTION('center_axis',(-1.,-3.10174063418113E-16,0.));
#285=DIRECTION('ref_axis',(3.10174063418113E-16,-1.,0.));
#286=DIRECTION('center_axis',(1.,3.10174063418113E-16,0.));
#287=DIRECTION('ref_axis',(0.,1.,0.));
#288=DIRECTION('center_axis',(1.,3.10174063418113E-16,0.));
#289=DIRECTION('ref_axis',(0.,1.,0.));
#290=DIRECTION('center_axis',(1.,3.10174063418113E-16,0.));
#291=DIRECTION('ref_axis',(0.,0.,-1.));
#292=DIRECTION('center_axis',(1.55087031709056E-16,-0.5,-0.866025403784438));
#293=DIRECTION('ref_axis',(-1.,0.,-1.77635683940025E-16));
#294=DIRECTION('',(-1.,-3.10174063418113E-16,0.));
#295=DIRECTION('',(-2.68618618515131E-16,0.866025403784438,-0.5));
#296=DIRECTION('',(-1.,-3.10174063418113E-16,0.));
#297=DIRECTION('center_axis',(-1.55087031709056E-16,0.5,-0.866025403784439));
#298=DIRECTION('ref_axis',(-1.,0.,1.77635683940025E-16));
#299=DIRECTION('',(-1.,-3.10174063418113E-16,0.));
#300=DIRECTION('',(-2.68618618515131E-16,0.866025403784439,0.499999999999999));
#301=DIRECTION('center_axis',(-3.10174063418113E-16,1.,-1.28197512425571E-15));
#302=DIRECTION('ref_axis',(0.,1.28785870856518E-15,1.));
#303=DIRECTION('',(-1.,-3.10174063418113E-16,0.));
#304=DIRECTION('',(-3.97635433491333E-31,1.28197512425571E-15,1.));
#305=DIRECTION('center_axis',(-1.55087031709056E-16,0.5,0.866025403784439));
#306=DIRECTION('ref_axis',(1.,0.,1.77635683940025E-16));
#307=DIRECTION('',(1.,3.10174063418113E-16,0.));
#308=DIRECTION('',(2.68618618515131E-16,-0.866025403784438,0.5));
#309=DIRECTION('center_axis',(3.10174063418113E-16,-1.,3.20493781063927E-16));
#310=DIRECTION('ref_axis',(0.,-3.10862446895044E-16,-1.));
#311=DIRECTION('',(9.94088583728333E-32,-3.20493781063927E-16,-1.));
#312=DIRECTION('',(-1.,-3.10174063418113E-16,0.));
#313=DIRECTION('center_axis',(1.55087031709056E-16,-0.5,0.866025403784439));
#314=DIRECTION('ref_axis',(1.,0.,-1.77635683940025E-16));
#315=DIRECTION('',(2.68618618515131E-16,-0.866025403784439,-0.5));
#316=DIRECTION('center_axis',(-1.,-3.10174063418113E-16,0.));
#317=DIRECTION('ref_axis',(0.,1.,0.));
#318=DIRECTION('center_axis',(-1.,-3.10174063418113E-16,0.));
#319=DIRECTION('ref_axis',(0.,0.,1.));
#320=DIRECTION('center_axis',(1.,3.10174063418113E-16,0.));
#321=DIRECTION('ref_axis',(0.,1.,0.));
#322=DIRECTION('center_axis',(1.,3.10174063418113E-16,0.));
#323=DIRECTION('ref_axis',(0.,1.,0.));
#324=DIRECTION('center_axis',(1.,3.10174063418113E-16,0.));
#325=DIRECTION('ref_axis',(0.,1.,0.));
#326=DIRECTION('center_axis',(1.,3.10174063418113E-16,0.));
#327=DIRECTION('ref_axis',(0.,0.,-1.));
#328=DIRECTION('center_axis',(1.,3.10174063418113E-16,0.));
#329=DIRECTION('ref_axis',(0.,1.,0.));
#330=DIRECTION('center_axis',(-1.,-3.10174063418113E-16,0.));
#331=DIRECTION('ref_axis',(0.,1.,0.));
#332=DIRECTION('center_axis',(1.,3.10174063418113E-16,0.));
#333=DIRECTION('ref_axis',(0.,1.,0.));
#334=DIRECTION('center_axis',(1.,3.10174063418113E-16,0.));
#335=DIRECTION('ref_axis',(0.,0.,-1.));
#336=DIRECTION('center_axis',(1.,3.10174063418113E-16,0.));
#337=DIRECTION('ref_axis',(0.,1.,0.));
#338=DIRECTION('center_axis',(1.,3.10174063418113E-16,0.));
#339=DIRECTION('ref_axis',(0.,1.,0.));
#340=DIRECTION('',(0.,0.,1.));
#341=DIRECTION('',(1.,0.,0.));
#342=CARTESIAN_POINT('',(0.,0.,0.));
#343=CARTESIAN_POINT('',(0.,0.,0.));
#344=CARTESIAN_POINT('Origin',(11.589908675,1.53813484428997E-15,0.));
#345=CARTESIAN_POINT('',(11.17981735,6.5785,8.05633896819086E-16));
#346=CARTESIAN_POINT('Origin',(11.17981735,1.4109351516422E-15,0.));
#347=CARTESIAN_POINT('',(12.,5.7225,-7.00804130812072E-16));
#348=CARTESIAN_POINT('Origin',(12.,1.66533453693773E-15,0.));
#349=CARTESIAN_POINT('Origin',(7.003,1.15394742037427E-16,0.));
#350=CARTESIAN_POINT('',(2.006,6.5785,0.));
#351=CARTESIAN_POINT('Origin',(2.006,-1.43454505286288E-15,0.));
#352=CARTESIAN_POINT('Origin',(12.,3.28925,0.));
#353=CARTESIAN_POINT('Origin',(-3.,-4.29949346314452E-15,-3.46410161513775));
#354=CARTESIAN_POINT('',(7.00000000000001,-1.3391514643195E-15,-3.46410161513775));
#355=CARTESIAN_POINT('',(7.00000000000001,-3.,-1.73205080756888));
#356=CARTESIAN_POINT('Ctrl Pts',(7.,8.97963911878674E-15,-3.46410161513776));
#357=CARTESIAN_POINT('Ctrl Pts',(7.50000000000001,-1.5,-2.59807621135332));
#358=CARTESIAN_POINT('Ctrl Pts',(7.,-3.00000000000001,-1.73205080756887));
#359=CARTESIAN_POINT('',(-3.,-4.29949346314452E-15,-3.46410161513775));
#360=CARTESIAN_POINT('',(2.,-4.9960036108132E-15,-3.46410161513776));
#361=CARTESIAN_POINT('',(-3.,-3.,-1.73205080756888));
#362=CARTESIAN_POINT('',(-3.,-0.750000000000004,-3.03108891324553));
#363=CARTESIAN_POINT('',(2.,-3.,-1.73205080756887));
#364=CARTESIAN_POINT('Origin',(-3.,3.,-1.73205080756888));
#365=CARTESIAN_POINT('',(7.00000000000001,3.,-1.73205080756888));
#366=CARTESIAN_POINT('Ctrl Pts',(7.,3.00000000000001,-1.73205080756887));
#367=CARTESIAN_POINT('Ctrl Pts',(7.50000000000001,1.5,-2.59807621135332));
#368=CARTESIAN_POINT('Ctrl Pts',(7.,-1.01717080559972E-14,-3.46410161513776));
#369=CARTESIAN_POINT('',(-3.,3.,-1.73205080756888));
#370=CARTESIAN_POINT('',(2.,3.,-1.73205080756888));
#371=CARTESIAN_POINT('',(-3.,2.25,-2.1650635094611));
#372=CARTESIAN_POINT('Origin',(-3.,3.,1.73205080756887));
#373=CARTESIAN_POINT('',(7.00000000000001,3.,1.73205080756888));
#374=CARTESIAN_POINT('Ctrl Pts',(7.,3.,1.73205080756888));
#375=CARTESIAN_POINT('Ctrl Pts',(7.50000000000001,3.,-3.88578058618805E-15));
#376=CARTESIAN_POINT('Ctrl Pts',(7.,3.,-1.73205080756889));
#377=CARTESIAN_POINT('',(-3.,3.,1.73205080756887));
#378=CARTESIAN_POINT('',(2.,3.,1.73205080756887));
#379=CARTESIAN_POINT('',(-3.,3.,0.866025403784435));
#380=CARTESIAN_POINT('Origin',(-3.,-2.92406026822669E-15,3.46410161513775));
#381=CARTESIAN_POINT('',(7.00000000000001,8.81294584930813E-16,3.46410161513775));
#382=CARTESIAN_POINT('Ctrl Pts',(7.,-1.04492638121535E-14,3.46410161513776));
#383=CARTESIAN_POINT('Ctrl Pts',(7.50000000000001,1.5,2.59807621135332));
#384=CARTESIAN_POINT('Ctrl Pts',(7.,3.00000000000001,1.73205080756887));
#385=CARTESIAN_POINT('',(-3.,-2.56304631884399E-15,3.46410161513775));
#386=CARTESIAN_POINT('',(2.,-2.77555756156289E-15,3.46410161513776));
#387=CARTESIAN_POINT('',(-3.,0.749999999999998,3.03108891324554));
#388=CARTESIAN_POINT('Origin',(-3.,-3.,-1.73205080756888));
#389=CARTESIAN_POINT('',(7.00000000000001,-3.,1.73205080756888));
#390=CARTESIAN_POINT('Ctrl Pts',(7.,-3.,-1.73205080756889));
#391=CARTESIAN_POINT('Ctrl Pts',(7.50000000000001,-3.,8.32667268468868E-16));
#392=CARTESIAN_POINT('Ctrl Pts',(7.,-3.,1.73205080756889));
#393=CARTESIAN_POINT('',(-3.,-3.,1.73205080756888));
#394=CARTESIAN_POINT('',(-3.,-3.,-0.866025403784437));
#395=CARTESIAN_POINT('',(2.,-3.,1.73205080756888));
#396=CARTESIAN_POINT('Origin',(-3.,-3.,1.73205080756888));
#397=CARTESIAN_POINT('Ctrl Pts',(7.,-3.00000000000001,1.73205080756887));
#398=CARTESIAN_POINT('Ctrl Pts',(7.50000000000001,-1.5,2.59807621135332));
#399=CARTESIAN_POINT('Ctrl Pts',(7.,1.17551966803496E-14,3.46410161513776));
#400=CARTESIAN_POINT('',(-3.,-2.25,2.1650635094611));
#401=CARTESIAN_POINT('Origin',(8.00000000000001,4.24638283265285E-16,0.));
#402=CARTESIAN_POINT('Origin',(-3.,6.23205080756887,0.));
#403=CARTESIAN_POINT('',(-3.,9.,0.));
#404=CARTESIAN_POINT('Origin',(-3.,-2.98727641433395E-15,0.));
#405=CARTESIAN_POINT('Origin',(-1.5,-2.52201531920678E-15,0.));
#406=CARTESIAN_POINT('',(1.38777878078145E-16,9.,0.));
#407=CARTESIAN_POINT('Origin',(3.33066907387547E-15,-2.05675422407962E-15,
0.));
#408=CARTESIAN_POINT('Origin',(6.93889390390723E-17,7.78925,0.));
#409=CARTESIAN_POINT('',(0.,6.5785,0.));
#410=CARTESIAN_POINT('Origin',(2.22044604925031E-15,-2.05675422407962E-15,
0.));
#411=CARTESIAN_POINT('Origin',(0.69796593368608,-1.84026329430079E-15,0.));
#412=CARTESIAN_POINT('',(1.39593186737215,5.77589155212822,0.));
#413=CARTESIAN_POINT('Origin',(1.39593186737216,-1.62377236452196E-15,0.));
#414=CARTESIAN_POINT('Origin',(1.595908675,-1.11022302462516E-15,0.));
#415=CARTESIAN_POINT('',(1.99703332095757,6.11592449966821,0.));
#416=CARTESIAN_POINT('Origin',(1.99703332095758,-1.43732628413684E-15,0.));
#417=CARTESIAN_POINT('Origin',(2.00151666047879,-1.43593566849986E-15,0.));
#418=CARTESIAN_POINT('',(0.,0.,0.));
#419=UNCERTAINTY_MEASURE_WITH_UNIT(LENGTH_MEASURE(0.01),#425,
'DISTANCE_ACCURACY_VALUE',
'Maximum model space distance between geometric entities at asserted c
onnectivities');
#420=UNCERTAINTY_MEASURE_WITH_UNIT(LENGTH_MEASURE(0.01),#425,
'DISTANCE_ACCURACY_VALUE',
'Maximum model space distance between geometric entities at asserted c
onnectivities');
#421=UNCERTAINTY_MEASURE_WITH_UNIT(LENGTH_MEASURE(1.E-6),#425,
'DISTANCE_ACCURACY_VALUE',
'Maximum model space distance between geometric entities at asserted c
onnectivities');
#422=(
GEOMETRIC_REPRESENTATION_CONTEXT(3)
GLOBAL_UNCERTAINTY_ASSIGNED_CONTEXT((#419))
GLOBAL_UNIT_ASSIGNED_CONTEXT((#425,#428,#426))
REPRESENTATION_CONTEXT('','3D')
);
#423=(
GEOMETRIC_REPRESENTATION_CONTEXT(3)
GLOBAL_UNCERTAINTY_ASSIGNED_CONTEXT((#420))
GLOBAL_UNIT_ASSIGNED_CONTEXT((#425,#428,#426))
REPRESENTATION_CONTEXT('','3D')
);
#424=(
GEOMETRIC_REPRESENTATION_CONTEXT(3)
GLOBAL_UNCERTAINTY_ASSIGNED_CONTEXT((#421))
GLOBAL_UNIT_ASSIGNED_CONTEXT((#425,#428,#426))
REPRESENTATION_CONTEXT('','3D')
);
#425=(
LENGTH_UNIT()
NAMED_UNIT(*)
SI_UNIT(.MILLI.,.METRE.)
);
#426=(
NAMED_UNIT(*)
SI_UNIT($,.STERADIAN.)
SOLID_ANGLE_UNIT()
);
#427=DIMENSIONAL_EXPONENTS(0.,0.,0.,0.,0.,0.,0.);
#428=(
CONVERSION_BASED_UNIT('degree',#430)
NAMED_UNIT(#427)
PLANE_ANGLE_UNIT()
);
#429=(
NAMED_UNIT(*)
PLANE_ANGLE_UNIT()
SI_UNIT($,.RADIAN.)
);
#430=PLANE_ANGLE_MEASURE_WITH_UNIT(PLANE_ANGLE_MEASURE(0.01745329252),#429);
#431=SHAPE_DEFINITION_REPRESENTATION(#433,#436);
#432=SHAPE_DEFINITION_REPRESENTATION(#434,#437);
#433=PRODUCT_DEFINITION_SHAPE('',$,#439);
#434=PRODUCT_DEFINITION_SHAPE('',$,#440);
#435=PRODUCT_DEFINITION_SHAPE($,$,#14);
#436=SHAPE_REPRESENTATION('',(#249,#275),#422);
#437=SHAPE_REPRESENTATION('',(#250),#423);
#438=PRODUCT_DEFINITION_CONTEXT('part definition',#446,'design');
#439=PRODUCT_DEFINITION('Baugruppe4','Baugruppe4',#441,#438);
#440=PRODUCT_DEFINITION('DIN 908 - G 0,25 A','DIN 908 - G 0,25 A',#442,
#438);
#441=PRODUCT_DEFINITION_FORMATION('',$,#448);
#442=PRODUCT_DEFINITION_FORMATION('',$,#449);
#443=PRODUCT_RELATED_PRODUCT_CATEGORY('Baugruppe4','Baugruppe4',(#448));
#444=PRODUCT_RELATED_PRODUCT_CATEGORY('DIN 908 - G 0,25 A',
'DIN 908 - G 0,25 A',(#449));
#445=APPLICATION_PROTOCOL_DEFINITION('international standard',
'automotive_design',2009,#446);
#446=APPLICATION_CONTEXT(
'Core Data for Automotive Mechanical Design Process');
#447=PRODUCT_CONTEXT('part definition',#446,'mechanical');
#448=PRODUCT('Baugruppe4','Baugruppe4',$,(#447));
#449=PRODUCT('DIN 908 - G 0,25 A','DIN 908 - G 0,25 A',
'Verschlu\X\DFschraube',(#447));
ENDSEC;
END-ISO-10303-21;
