ISO-10303-21;
HEADER;
/* Generated by software containing ST-Developer
 * from STEP Tools, Inc. (www.steptools.com) 
 */

FILE_DESCRIPTION(
/* description */ (''),
/* implementation_level */ '2;1');

FILE_NAME(
/* name */ 'H:\\cad\\neutral\\3d\\73328\\sd_50-la.stp',
/* time_stamp */ '2017-11-27T10:36:18+01:00',
/* author */ ('leitheu\X\DFer'),
/* organization */ (''),
/* preprocessor_version */ 'ST-DEVELOPER v15.6',
/* originating_system */ 'Autodesk Inventor LT ',
/* authorisation */ '');

FILE_SCHEMA (('AUTOMOTIVE_DESIGN { 1 0 10303 214 3 1 1 }'));
ENDSEC;

DATA;
#10=MECHANICAL_DESIGN_GEOMETRIC_PRESENTATION_REPRESENTATION('',(#17,#18,
#16),#211);
#11=SHAPE_REPRESENTATION_RELATIONSHIP('SRR','None',#220,#12);
#12=ADVANCED_BREP_SHAPE_REPRESENTATION($,(#13),#210);
#13=MANIFOLD_SOLID_BREP('Volumenk\X\F6rper1',#118);
#14=CONICAL_SURFACE('',#128,4.,2.00253313182689);
#15=CONICAL_SURFACE('',#136,2.25,60.0000000000001);
#16=STYLED_ITEM('',(#230),#111);
#17=STYLED_ITEM('',(#230),#112);
#18=STYLED_ITEM('',(#229),#13);
#19=CYLINDRICAL_SURFACE('',#123,1.3);
#20=CYLINDRICAL_SURFACE('',#130,4.25);
#21=CYLINDRICAL_SURFACE('',#134,2.);
#22=CYLINDRICAL_SURFACE('',#138,2.5);
#23=FACE_BOUND('',#42,.T.);
#24=FACE_BOUND('',#44,.T.);
#25=FACE_BOUND('',#48,.T.);
#26=FACE_BOUND('',#50,.T.);
#27=FACE_BOUND('',#52,.T.);
#28=FACE_BOUND('',#54,.T.);
#29=FACE_BOUND('',#56,.T.);
#30=FACE_BOUND('',#58,.T.);
#31=FACE_OUTER_BOUND('',#41,.T.);
#32=FACE_OUTER_BOUND('',#43,.T.);
#33=FACE_OUTER_BOUND('',#45,.T.);
#34=FACE_OUTER_BOUND('',#46,.T.);
#35=FACE_OUTER_BOUND('',#47,.T.);
#36=FACE_OUTER_BOUND('',#49,.T.);
#37=FACE_OUTER_BOUND('',#51,.T.);
#38=FACE_OUTER_BOUND('',#53,.T.);
#39=FACE_OUTER_BOUND('',#55,.T.);
#40=FACE_OUTER_BOUND('',#57,.T.);
#41=EDGE_LOOP('',(#86));
#42=EDGE_LOOP('',(#87));
#43=EDGE_LOOP('',(#88));
#44=EDGE_LOOP('',(#89));
#45=EDGE_LOOP('',(#90));
#46=EDGE_LOOP('',(#91));
#47=EDGE_LOOP('',(#92));
#48=EDGE_LOOP('',(#93));
#49=EDGE_LOOP('',(#94));
#50=EDGE_LOOP('',(#95));
#51=EDGE_LOOP('',(#96));
#52=EDGE_LOOP('',(#97));
#53=EDGE_LOOP('',(#98));
#54=EDGE_LOOP('',(#99));
#55=EDGE_LOOP('',(#100));
#56=EDGE_LOOP('',(#101));
#57=EDGE_LOOP('',(#102));
#58=EDGE_LOOP('',(#103));
#59=CIRCLE('',#121,2.5);
#60=CIRCLE('',#122,1.3);
#61=CIRCLE('',#124,1.3);
#62=CIRCLE('',#127,3.75);
#63=CIRCLE('',#129,4.25);
#64=CIRCLE('',#131,4.25);
#65=CIRCLE('',#133,2.);
#66=CIRCLE('',#135,2.);
#67=CIRCLE('',#137,2.5);
#68=VERTEX_POINT('',#181);
#69=VERTEX_POINT('',#183);
#70=VERTEX_POINT('',#186);
#71=VERTEX_POINT('',#190);
#72=VERTEX_POINT('',#193);
#73=VERTEX_POINT('',#196);
#74=VERTEX_POINT('',#199);
#75=VERTEX_POINT('',#202);
#76=VERTEX_POINT('',#205);
#77=EDGE_CURVE('',#68,#68,#59,.T.);
#78=EDGE_CURVE('',#69,#69,#60,.T.);
#79=EDGE_CURVE('',#70,#70,#61,.T.);
#80=EDGE_CURVE('',#71,#71,#62,.T.);
#81=EDGE_CURVE('',#72,#72,#63,.T.);
#82=EDGE_CURVE('',#73,#73,#64,.T.);
#83=EDGE_CURVE('',#74,#74,#65,.T.);
#84=EDGE_CURVE('',#75,#75,#66,.T.);
#85=EDGE_CURVE('',#76,#76,#67,.T.);
#86=ORIENTED_EDGE('',*,*,#77,.T.);
#87=ORIENTED_EDGE('',*,*,#78,.F.);
#88=ORIENTED_EDGE('',*,*,#78,.T.);
#89=ORIENTED_EDGE('',*,*,#79,.F.);
#90=ORIENTED_EDGE('',*,*,#79,.T.);
#91=ORIENTED_EDGE('',*,*,#80,.F.);
#92=ORIENTED_EDGE('',*,*,#80,.T.);
#93=ORIENTED_EDGE('',*,*,#81,.F.);
#94=ORIENTED_EDGE('',*,*,#81,.T.);
#95=ORIENTED_EDGE('',*,*,#82,.F.);
#96=ORIENTED_EDGE('',*,*,#82,.T.);
#97=ORIENTED_EDGE('',*,*,#83,.F.);
#98=ORIENTED_EDGE('',*,*,#83,.T.);
#99=ORIENTED_EDGE('',*,*,#84,.F.);
#100=ORIENTED_EDGE('',*,*,#84,.T.);
#101=ORIENTED_EDGE('',*,*,#85,.F.);
#102=ORIENTED_EDGE('',*,*,#85,.T.);
#103=ORIENTED_EDGE('',*,*,#77,.F.);
#104=PLANE('',#120);
#105=PLANE('',#125);
#106=PLANE('',#126);
#107=PLANE('',#132);
#108=ADVANCED_FACE('',(#31,#23),#104,.T.);
#109=ADVANCED_FACE('',(#32,#24),#19,.F.);
#110=ADVANCED_FACE('',(#33),#105,.T.);
#111=ADVANCED_FACE('',(#34),#106,.T.);
#112=ADVANCED_FACE('',(#35,#25),#14,.T.);
#113=ADVANCED_FACE('',(#36,#26),#20,.T.);
#114=ADVANCED_FACE('',(#37,#27),#107,.T.);
#115=ADVANCED_FACE('',(#38,#28),#21,.T.);
#116=ADVANCED_FACE('',(#39,#29),#15,.T.);
#117=ADVANCED_FACE('',(#40,#30),#22,.T.);
#118=CLOSED_SHELL('',(#108,#109,#110,#111,#112,#113,#114,#115,#116,#117));
#119=AXIS2_PLACEMENT_3D('placement',#179,#139,#140);
#120=AXIS2_PLACEMENT_3D('',#180,#141,#142);
#121=AXIS2_PLACEMENT_3D('',#182,#143,#144);
#122=AXIS2_PLACEMENT_3D('',#184,#145,#146);
#123=AXIS2_PLACEMENT_3D('',#185,#147,#148);
#124=AXIS2_PLACEMENT_3D('',#187,#149,#150);
#125=AXIS2_PLACEMENT_3D('',#188,#151,#152);
#126=AXIS2_PLACEMENT_3D('',#189,#153,#154);
#127=AXIS2_PLACEMENT_3D('',#191,#155,#156);
#128=AXIS2_PLACEMENT_3D('',#192,#157,#158);
#129=AXIS2_PLACEMENT_3D('',#194,#159,#160);
#130=AXIS2_PLACEMENT_3D('',#195,#161,#162);
#131=AXIS2_PLACEMENT_3D('',#197,#163,#164);
#132=AXIS2_PLACEMENT_3D('',#198,#165,#166);
#133=AXIS2_PLACEMENT_3D('',#200,#167,#168);
#134=AXIS2_PLACEMENT_3D('',#201,#169,#170);
#135=AXIS2_PLACEMENT_3D('',#203,#171,#172);
#136=AXIS2_PLACEMENT_3D('',#204,#173,#174);
#137=AXIS2_PLACEMENT_3D('',#206,#175,#176);
#138=AXIS2_PLACEMENT_3D('',#207,#177,#178);
#139=DIRECTION('axis',(0.,0.,1.));
#140=DIRECTION('refdir',(1.,0.,0.));
#141=DIRECTION('center_axis',(1.,0.,0.));
#142=DIRECTION('ref_axis',(0.,0.,-1.));
#143=DIRECTION('center_axis',(1.,0.,0.));
#144=DIRECTION('ref_axis',(0.,0.,-1.));
#145=DIRECTION('center_axis',(1.,0.,0.));
#146=DIRECTION('ref_axis',(0.,0.,-1.));
#147=DIRECTION('center_axis',(1.,0.,0.));
#148=DIRECTION('ref_axis',(0.,1.,0.));
#149=DIRECTION('center_axis',(1.,0.,0.));
#150=DIRECTION('ref_axis',(0.,0.,-1.));
#151=DIRECTION('center_axis',(1.,0.,0.));
#152=DIRECTION('ref_axis',(0.,0.,-1.));
#153=DIRECTION('center_axis',(-1.,0.,0.));
#154=DIRECTION('ref_axis',(0.,0.,1.));
#155=DIRECTION('center_axis',(1.,0.,0.));
#156=DIRECTION('ref_axis',(0.,0.,-1.));
#157=DIRECTION('center_axis',(1.,0.,0.));
#158=DIRECTION('ref_axis',(0.,1.,0.));
#159=DIRECTION('center_axis',(1.,0.,0.));
#160=DIRECTION('ref_axis',(0.,0.,-1.));
#161=DIRECTION('center_axis',(1.,0.,0.));
#162=DIRECTION('ref_axis',(0.,1.,0.));
#163=DIRECTION('center_axis',(1.,0.,0.));
#164=DIRECTION('ref_axis',(0.,0.,-1.));
#165=DIRECTION('center_axis',(1.,0.,0.));
#166=DIRECTION('ref_axis',(0.,0.,-1.));
#167=DIRECTION('center_axis',(1.,0.,0.));
#168=DIRECTION('ref_axis',(0.,0.,-1.));
#169=DIRECTION('center_axis',(1.,0.,0.));
#170=DIRECTION('ref_axis',(0.,1.,0.));
#171=DIRECTION('center_axis',(1.,0.,0.));
#172=DIRECTION('ref_axis',(0.,0.,-1.));
#173=DIRECTION('center_axis',(1.,0.,0.));
#174=DIRECTION('ref_axis',(0.,1.,0.));
#175=DIRECTION('center_axis',(1.,0.,0.));
#176=DIRECTION('ref_axis',(0.,0.,-1.));
#177=DIRECTION('center_axis',(1.,0.,0.));
#178=DIRECTION('ref_axis',(0.,1.,0.));
#179=CARTESIAN_POINT('',(0.,0.,0.));
#180=CARTESIAN_POINT('Origin',(0.,1.3,0.));
#181=CARTESIAN_POINT('',(0.,2.5,0.));
#182=CARTESIAN_POINT('Origin',(0.,0.,0.));
#183=CARTESIAN_POINT('',(0.,1.3,0.));
#184=CARTESIAN_POINT('Origin',(0.,0.,0.));
#185=CARTESIAN_POINT('Origin',(-9.,0.,0.));
#186=CARTESIAN_POINT('',(-18.,1.3,0.));
#187=CARTESIAN_POINT('Origin',(-18.,0.,0.));
#188=CARTESIAN_POINT('Origin',(-18.,0.,0.));
#189=CARTESIAN_POINT('Origin',(-21.3,3.75,0.));
#190=CARTESIAN_POINT('',(-21.3,3.75,0.));
#191=CARTESIAN_POINT('Origin',(-21.3,0.,0.));
#192=CARTESIAN_POINT('Origin',(-14.15,0.,0.));
#193=CARTESIAN_POINT('',(-7.,4.25,0.));
#194=CARTESIAN_POINT('Origin',(-7.,0.,0.));
#195=CARTESIAN_POINT('Origin',(-6.5,0.,0.));
#196=CARTESIAN_POINT('',(-6.,4.25,0.));
#197=CARTESIAN_POINT('Origin',(-6.,0.,0.));
#198=CARTESIAN_POINT('Origin',(-6.,2.,0.));
#199=CARTESIAN_POINT('',(-6.,2.,0.));
#200=CARTESIAN_POINT('Origin',(-6.,0.,0.));
#201=CARTESIAN_POINT('Origin',(-5.14433756729741,0.,0.));
#202=CARTESIAN_POINT('',(-4.28867513459481,2.,0.));
#203=CARTESIAN_POINT('Origin',(-4.28867513459481,0.,0.));
#204=CARTESIAN_POINT('Origin',(-4.14433756729741,0.,0.));
#205=CARTESIAN_POINT('',(-4.,2.5,0.));
#206=CARTESIAN_POINT('Origin',(-4.,0.,0.));
#207=CARTESIAN_POINT('Origin',(-2.,0.,0.));
#208=UNCERTAINTY_MEASURE_WITH_UNIT(LENGTH_MEASURE(0.01),#212,
'DISTANCE_ACCURACY_VALUE',
'Maximum model space distance between geometric entities at asserted c
onnectivities');
#209=UNCERTAINTY_MEASURE_WITH_UNIT(LENGTH_MEASURE(1.E-6),#212,
'DISTANCE_ACCURACY_VALUE',
'Maximum model space distance between geometric entities at asserted c
onnectivities');
#210=(
GEOMETRIC_REPRESENTATION_CONTEXT(3)
GLOBAL_UNCERTAINTY_ASSIGNED_CONTEXT((#208))
GLOBAL_UNIT_ASSIGNED_CONTEXT((#212,#215,#213))
REPRESENTATION_CONTEXT('','3D')
);
#211=(
GEOMETRIC_REPRESENTATION_CONTEXT(3)
GLOBAL_UNCERTAINTY_ASSIGNED_CONTEXT((#209))
GLOBAL_UNIT_ASSIGNED_CONTEXT((#212,#215,#213))
REPRESENTATION_CONTEXT('','3D')
);
#212=(
LENGTH_UNIT()
NAMED_UNIT(*)
SI_UNIT(.MILLI.,.METRE.)
);
#213=(
NAMED_UNIT(*)
SI_UNIT($,.STERADIAN.)
SOLID_ANGLE_UNIT()
);
#214=DIMENSIONAL_EXPONENTS(0.,0.,0.,0.,0.,0.,0.);
#215=(
CONVERSION_BASED_UNIT('degree',#217)
NAMED_UNIT(#214)
PLANE_ANGLE_UNIT()
);
#216=(
NAMED_UNIT(*)
PLANE_ANGLE_UNIT()
SI_UNIT($,.RADIAN.)
);
#217=PLANE_ANGLE_MEASURE_WITH_UNIT(PLANE_ANGLE_MEASURE(0.01745329252),#216);
#218=SHAPE_DEFINITION_REPRESENTATION(#219,#220);
#219=PRODUCT_DEFINITION_SHAPE('',$,#222);
#220=SHAPE_REPRESENTATION('',(#119),#210);
#221=PRODUCT_DEFINITION_CONTEXT('part definition',#226,'design');
#222=PRODUCT_DEFINITION('SD 50','SD 50',#223,#221);
#223=PRODUCT_DEFINITION_FORMATION('',$,#228);
#224=PRODUCT_RELATED_PRODUCT_CATEGORY('SD 50','SD 50',(#228));
#225=APPLICATION_PROTOCOL_DEFINITION('international standard',
'automotive_design',2009,#226);
#226=APPLICATION_CONTEXT(
'Core Data for Automotive Mechanical Design Process');
#227=PRODUCT_CONTEXT('part definition',#226,'mechanical');
#228=PRODUCT('SD 50','SD 50',$,(#227));
#229=PRESENTATION_STYLE_ASSIGNMENT((#231));
#230=PRESENTATION_STYLE_ASSIGNMENT((#232));
#231=SURFACE_STYLE_USAGE(.BOTH.,#233);
#232=SURFACE_STYLE_USAGE(.BOTH.,#234);
#233=SURFACE_SIDE_STYLE($,(#235));
#234=SURFACE_SIDE_STYLE($,(#236));
#235=SURFACE_STYLE_FILL_AREA(#237);
#236=SURFACE_STYLE_FILL_AREA(#238);
#237=FILL_AREA_STYLE($,(#239));
#238=FILL_AREA_STYLE($,(#240));
#239=FILL_AREA_STYLE_COLOUR($,#241);
#240=FILL_AREA_STYLE_COLOUR($,#242);
#241=COLOUR_RGB('',0.796078431372549,0.603921568627451,0.231372549019608);
#242=COLOUR_RGB('',0.96078431372549,0.996078431372549,0.556862745098039);
ENDSEC;
END-ISO-10303-21;
