ISO-10303-21;
HEADER;
/* Generated by software containing ST-Developer
 * from STEP Tools, Inc. (www.steptools.com) 
 */

FILE_DESCRIPTION(
/* description */ (''),
/* implementation_level */ '2;1');

FILE_NAME(
/* name */ 
'C:\\Users\\enginyeria\\Desktop\\stp ventosas roscas\\vcr45nit.stp',
/* time_stamp */ '2020-09-29T14:49:49+02:00',
/* author */ ('enginyeria'),
/* organization */ (''),
/* preprocessor_version */ 'ST-DEVELOPER v17.2',
/* originating_system */ 'Autodesk Inventor 2019',
/* authorisation */ '');

FILE_SCHEMA (('CONFIG_CONTROL_DESIGN'));
ENDSEC;

DATA;
#10=MECHANICAL_DESIGN_GEOMETRIC_PRESENTATION_REPRESENTATION('',(#15,#16,
#17,#18,#19,#20,#21),#505);
#11=SHAPE_REPRESENTATION_RELATIONSHIP('SRR','None',#512,#12);
#12=ADVANCED_BREP_SHAPE_REPRESENTATION('',(#13),#504);
#13=MANIFOLD_SOLID_BREP('S\X\F3lido1',#273);
#14=TOROIDAL_SURFACE('',#313,16.1999999999999,0.3);
#15=STYLED_ITEM('',(#523),#264);
#16=STYLED_ITEM('',(#523),#265);
#17=STYLED_ITEM('',(#523),#266);
#18=STYLED_ITEM('',(#523),#267);
#19=STYLED_ITEM('',(#523),#268);
#20=STYLED_ITEM('',(#523),#269);
#21=STYLED_ITEM('',(#522),#13);
#22=FACE_BOUND('',#54,.T.);
#23=FACE_BOUND('',#59,.T.);
#24=PLANE('',#300);
#25=PLANE('',#303);
#26=PLANE('',#304);
#27=PLANE('',#306);
#28=PLANE('',#309);
#29=PLANE('',#327);
#30=PLANE('',#328);
#31=PLANE('',#329);
#32=CYLINDRICAL_SURFACE('',#297,5.7225);
#33=CYLINDRICAL_SURFACE('',#318,16.5);
#34=CYLINDRICAL_SURFACE('',#324,22.5);
#35=CYLINDRICAL_SURFACE('',#330,11.);
#36=FACE_OUTER_BOUND('',#51,.T.);
#37=FACE_OUTER_BOUND('',#52,.T.);
#38=FACE_OUTER_BOUND('',#53,.T.);
#39=FACE_OUTER_BOUND('',#55,.T.);
#40=FACE_OUTER_BOUND('',#56,.T.);
#41=FACE_OUTER_BOUND('',#57,.T.);
#42=FACE_OUTER_BOUND('',#58,.T.);
#43=FACE_OUTER_BOUND('',#60,.T.);
#44=FACE_OUTER_BOUND('',#61,.T.);
#45=FACE_OUTER_BOUND('',#62,.T.);
#46=FACE_OUTER_BOUND('',#63,.T.);
#47=FACE_OUTER_BOUND('',#64,.T.);
#48=FACE_OUTER_BOUND('',#65,.T.);
#49=FACE_OUTER_BOUND('',#66,.T.);
#50=FACE_OUTER_BOUND('',#67,.T.);
#51=EDGE_LOOP('',(#182,#183,#184,#185,#186));
#52=EDGE_LOOP('',(#187,#188,#189,#190,#191,#192));
#53=EDGE_LOOP('',(#193,#194,#195,#196));
#54=EDGE_LOOP('',(#197));
#55=EDGE_LOOP('',(#198,#199));
#56=EDGE_LOOP('',(#200,#201));
#57=EDGE_LOOP('',(#202,#203,#204));
#58=EDGE_LOOP('',(#205,#206));
#59=EDGE_LOOP('',(#207));
#60=EDGE_LOOP('',(#208,#209,#210,#211,#212,#213,#214));
#61=EDGE_LOOP('',(#215,#216,#217,#218,#219,#220,#221));
#62=EDGE_LOOP('',(#222,#223,#224,#225,#226,#227));
#63=EDGE_LOOP('',(#228,#229,#230,#231,#232,#233));
#64=EDGE_LOOP('',(#234,#235));
#65=EDGE_LOOP('',(#236,#237,#238,#239));
#66=EDGE_LOOP('',(#240,#241,#242,#243));
#67=EDGE_LOOP('',(#244,#245,#246,#247,#248,#249,#250,#251,#252,#253,#254,
#255));
#68=LINE('',#428,#82);
#69=LINE('',#437,#83);
#70=LINE('',#441,#84);
#71=LINE('',#445,#85);
#72=LINE('',#451,#86);
#73=LINE('',#456,#87);
#74=LINE('',#480,#88);
#75=LINE('',#486,#89);
#76=LINE('',#492,#90);
#77=LINE('',#495,#91);
#78=LINE('',#496,#92);
#79=LINE('',#498,#93);
#80=LINE('',#499,#94);
#81=LINE('',#501,#95);
#82=VECTOR('',#337,5.9725);
#83=VECTOR('',#348,5.7225);
#84=VECTOR('',#351,1.);
#85=VECTOR('',#354,1.);
#86=VECTOR('',#361,1.);
#87=VECTOR('',#366,1.);
#88=VECTOR('',#395,16.5);
#89=VECTOR('',#402,19.5);
#90=VECTOR('',#409,22.5);
#91=VECTOR('',#414,1.);
#92=VECTOR('',#415,1.);
#93=VECTOR('',#418,1.);
#94=VECTOR('',#419,1.);
#95=VECTOR('',#422,11.);
#96=CIRCLE('',#294,6.2225);
#97=CIRCLE('',#295,5.7225);
#98=CIRCLE('',#296,5.7225);
#99=CIRCLE('',#298,5.7225);
#100=CIRCLE('',#299,5.7225);
#101=CIRCLE('',#301,11.);
#102=CIRCLE('',#302,11.);
#103=CIRCLE('',#305,11.);
#104=CIRCLE('',#307,11.);
#105=CIRCLE('',#308,11.);
#106=CIRCLE('',#310,16.1999999999999);
#107=CIRCLE('',#311,16.1999999999999);
#108=CIRCLE('',#312,11.);
#109=CIRCLE('',#314,16.5);
#110=CIRCLE('',#315,16.5);
#111=CIRCLE('',#316,0.3);
#112=CIRCLE('',#317,16.5);
#113=CIRCLE('',#319,16.5);
#114=CIRCLE('',#320,16.5);
#115=CIRCLE('',#322,22.5);
#116=CIRCLE('',#323,22.5);
#117=CIRCLE('',#325,22.5);
#118=CIRCLE('',#326,22.5);
#119=VERTEX_POINT('',#425);
#120=VERTEX_POINT('',#427);
#121=VERTEX_POINT('',#429);
#122=VERTEX_POINT('',#433);
#123=VERTEX_POINT('',#434);
#124=VERTEX_POINT('',#439);
#125=VERTEX_POINT('',#440);
#126=VERTEX_POINT('',#442);
#127=VERTEX_POINT('',#444);
#128=VERTEX_POINT('',#449);
#129=VERTEX_POINT('',#450);
#130=VERTEX_POINT('',#454);
#131=VERTEX_POINT('',#455);
#132=VERTEX_POINT('',#457);
#133=VERTEX_POINT('',#461);
#134=VERTEX_POINT('',#462);
#135=VERTEX_POINT('',#465);
#136=VERTEX_POINT('',#468);
#137=VERTEX_POINT('',#469);
#138=VERTEX_POINT('',#471);
#139=VERTEX_POINT('',#476);
#140=VERTEX_POINT('',#477);
#141=VERTEX_POINT('',#482);
#142=VERTEX_POINT('',#483);
#143=VERTEX_POINT('',#488);
#144=VERTEX_POINT('',#489);
#145=EDGE_CURVE('',#119,#119,#96,.T.);
#146=EDGE_CURVE('',#119,#120,#68,.T.);
#147=EDGE_CURVE('',#120,#121,#97,.T.);
#148=EDGE_CURVE('',#121,#120,#98,.T.);
#149=EDGE_CURVE('',#122,#123,#99,.T.);
#150=EDGE_CURVE('',#123,#122,#100,.T.);
#151=EDGE_CURVE('',#123,#121,#69,.T.);
#152=EDGE_CURVE('',#124,#125,#70,.T.);
#153=EDGE_CURVE('',#126,#125,#101,.T.);
#154=EDGE_CURVE('',#126,#127,#71,.T.);
#155=EDGE_CURVE('',#124,#127,#102,.T.);
#156=EDGE_CURVE('',#128,#129,#72,.T.);
#157=EDGE_CURVE('',#128,#129,#103,.T.);
#158=EDGE_CURVE('',#130,#131,#73,.T.);
#159=EDGE_CURVE('',#132,#131,#104,.T.);
#160=EDGE_CURVE('',#130,#132,#105,.T.);
#161=EDGE_CURVE('',#133,#134,#106,.T.);
#162=EDGE_CURVE('',#134,#133,#107,.T.);
#163=EDGE_CURVE('',#135,#135,#108,.T.);
#164=EDGE_CURVE('',#136,#137,#109,.T.);
#165=EDGE_CURVE('',#138,#136,#110,.T.);
#166=EDGE_CURVE('',#138,#134,#111,.T.);
#167=EDGE_CURVE('',#137,#138,#112,.T.);
#168=EDGE_CURVE('',#139,#140,#113,.T.);
#169=EDGE_CURVE('',#140,#139,#114,.T.);
#170=EDGE_CURVE('',#140,#137,#74,.T.);
#171=EDGE_CURVE('',#141,#142,#115,.T.);
#172=EDGE_CURVE('',#142,#141,#116,.T.);
#173=EDGE_CURVE('',#142,#140,#75,.T.);
#174=EDGE_CURVE('',#143,#144,#117,.T.);
#175=EDGE_CURVE('',#144,#143,#118,.T.);
#176=EDGE_CURVE('',#144,#142,#76,.T.);
#177=EDGE_CURVE('',#125,#130,#77,.T.);
#178=EDGE_CURVE('',#131,#124,#78,.T.);
#179=EDGE_CURVE('',#127,#128,#79,.T.);
#180=EDGE_CURVE('',#129,#126,#80,.T.);
#181=EDGE_CURVE('',#135,#132,#81,.T.);
#182=ORIENTED_EDGE('',*,*,#145,.T.);
#183=ORIENTED_EDGE('',*,*,#146,.T.);
#184=ORIENTED_EDGE('',*,*,#147,.T.);
#185=ORIENTED_EDGE('',*,*,#148,.T.);
#186=ORIENTED_EDGE('',*,*,#146,.F.);
#187=ORIENTED_EDGE('',*,*,#149,.F.);
#188=ORIENTED_EDGE('',*,*,#150,.F.);
#189=ORIENTED_EDGE('',*,*,#151,.T.);
#190=ORIENTED_EDGE('',*,*,#147,.F.);
#191=ORIENTED_EDGE('',*,*,#148,.F.);
#192=ORIENTED_EDGE('',*,*,#151,.F.);
#193=ORIENTED_EDGE('',*,*,#152,.T.);
#194=ORIENTED_EDGE('',*,*,#153,.F.);
#195=ORIENTED_EDGE('',*,*,#154,.T.);
#196=ORIENTED_EDGE('',*,*,#155,.F.);
#197=ORIENTED_EDGE('',*,*,#145,.F.);
#198=ORIENTED_EDGE('',*,*,#149,.T.);
#199=ORIENTED_EDGE('',*,*,#150,.T.);
#200=ORIENTED_EDGE('',*,*,#156,.T.);
#201=ORIENTED_EDGE('',*,*,#157,.F.);
#202=ORIENTED_EDGE('',*,*,#158,.T.);
#203=ORIENTED_EDGE('',*,*,#159,.F.);
#204=ORIENTED_EDGE('',*,*,#160,.F.);
#205=ORIENTED_EDGE('',*,*,#161,.F.);
#206=ORIENTED_EDGE('',*,*,#162,.F.);
#207=ORIENTED_EDGE('',*,*,#163,.T.);
#208=ORIENTED_EDGE('',*,*,#164,.F.);
#209=ORIENTED_EDGE('',*,*,#165,.F.);
#210=ORIENTED_EDGE('',*,*,#166,.T.);
#211=ORIENTED_EDGE('',*,*,#162,.T.);
#212=ORIENTED_EDGE('',*,*,#161,.T.);
#213=ORIENTED_EDGE('',*,*,#166,.F.);
#214=ORIENTED_EDGE('',*,*,#167,.F.);
#215=ORIENTED_EDGE('',*,*,#168,.F.);
#216=ORIENTED_EDGE('',*,*,#169,.F.);
#217=ORIENTED_EDGE('',*,*,#170,.T.);
#218=ORIENTED_EDGE('',*,*,#167,.T.);
#219=ORIENTED_EDGE('',*,*,#165,.T.);
#220=ORIENTED_EDGE('',*,*,#164,.T.);
#221=ORIENTED_EDGE('',*,*,#170,.F.);
#222=ORIENTED_EDGE('',*,*,#171,.F.);
#223=ORIENTED_EDGE('',*,*,#172,.F.);
#224=ORIENTED_EDGE('',*,*,#173,.T.);
#225=ORIENTED_EDGE('',*,*,#169,.T.);
#226=ORIENTED_EDGE('',*,*,#168,.T.);
#227=ORIENTED_EDGE('',*,*,#173,.F.);
#228=ORIENTED_EDGE('',*,*,#174,.F.);
#229=ORIENTED_EDGE('',*,*,#175,.F.);
#230=ORIENTED_EDGE('',*,*,#176,.T.);
#231=ORIENTED_EDGE('',*,*,#172,.T.);
#232=ORIENTED_EDGE('',*,*,#171,.T.);
#233=ORIENTED_EDGE('',*,*,#176,.F.);
#234=ORIENTED_EDGE('',*,*,#174,.T.);
#235=ORIENTED_EDGE('',*,*,#175,.T.);
#236=ORIENTED_EDGE('',*,*,#177,.F.);
#237=ORIENTED_EDGE('',*,*,#152,.F.);
#238=ORIENTED_EDGE('',*,*,#178,.F.);
#239=ORIENTED_EDGE('',*,*,#158,.F.);
#240=ORIENTED_EDGE('',*,*,#179,.F.);
#241=ORIENTED_EDGE('',*,*,#154,.F.);
#242=ORIENTED_EDGE('',*,*,#180,.F.);
#243=ORIENTED_EDGE('',*,*,#156,.F.);
#244=ORIENTED_EDGE('',*,*,#163,.F.);
#245=ORIENTED_EDGE('',*,*,#181,.T.);
#246=ORIENTED_EDGE('',*,*,#159,.T.);
#247=ORIENTED_EDGE('',*,*,#178,.T.);
#248=ORIENTED_EDGE('',*,*,#155,.T.);
#249=ORIENTED_EDGE('',*,*,#179,.T.);
#250=ORIENTED_EDGE('',*,*,#157,.T.);
#251=ORIENTED_EDGE('',*,*,#180,.T.);
#252=ORIENTED_EDGE('',*,*,#153,.T.);
#253=ORIENTED_EDGE('',*,*,#177,.T.);
#254=ORIENTED_EDGE('',*,*,#160,.T.);
#255=ORIENTED_EDGE('',*,*,#181,.F.);
#256=CONICAL_SURFACE('',#293,5.9725,0.785398163397451);
#257=CONICAL_SURFACE('',#321,19.5,0.890994699029138);
#258=ADVANCED_FACE('',(#36),#256,.F.);
#259=ADVANCED_FACE('',(#37),#32,.F.);
#260=ADVANCED_FACE('',(#38,#22),#24,.F.);
#261=ADVANCED_FACE('',(#39),#25,.T.);
#262=ADVANCED_FACE('',(#40),#26,.T.);
#263=ADVANCED_FACE('',(#41),#27,.T.);
#264=ADVANCED_FACE('',(#42,#23),#28,.T.);
#265=ADVANCED_FACE('',(#43),#14,.T.);
#266=ADVANCED_FACE('',(#44),#33,.T.);
#267=ADVANCED_FACE('',(#45),#257,.T.);
#268=ADVANCED_FACE('',(#46),#34,.T.);
#269=ADVANCED_FACE('',(#47),#29,.T.);
#270=ADVANCED_FACE('',(#48),#30,.T.);
#271=ADVANCED_FACE('',(#49),#31,.T.);
#272=ADVANCED_FACE('',(#50),#35,.T.);
#273=CLOSED_SHELL('',(#258,#259,#260,#261,#262,#263,#264,#265,#266,#267,
#268,#269,#270,#271,#272));
#274=DERIVED_UNIT_ELEMENT(#276,1.);
#275=DERIVED_UNIT_ELEMENT(#507,3.);
#276=(
MASS_UNIT()
NAMED_UNIT(*)
SI_UNIT($,.GRAM.)
);
#277=DERIVED_UNIT((#274,#275));
#278=MEASURE_REPRESENTATION_ITEM('density measure',
POSITIVE_RATIO_MEASURE(1.),#277);
#279=PROPERTY_DEFINITION_REPRESENTATION(#284,#281);
#280=PROPERTY_DEFINITION_REPRESENTATION(#285,#282);
#281=REPRESENTATION('material name',(#283),#504);
#282=REPRESENTATION('density',(#278),#504);
#283=DESCRIPTIVE_REPRESENTATION_ITEM('Generic','Generic');
#284=PROPERTY_DEFINITION('material property','material name',#514);
#285=PROPERTY_DEFINITION('material property','density of part',#514);
#286=DATE_TIME_ROLE('creation_date');
#287=CC_DESIGN_DATE_AND_TIME_ASSIGNMENT(#288,#286,(#514));
#288=DATE_AND_TIME(#289,#290);
#289=CALENDAR_DATE(2020,24,3);
#290=LOCAL_TIME(12,55,14.,#291);
#291=COORDINATED_UNIVERSAL_TIME_OFFSET(0,0,.BEHIND.);
#292=AXIS2_PLACEMENT_3D('placement',#423,#331,#332);
#293=AXIS2_PLACEMENT_3D('',#424,#333,#334);
#294=AXIS2_PLACEMENT_3D('',#426,#335,#336);
#295=AXIS2_PLACEMENT_3D('',#430,#338,#339);
#296=AXIS2_PLACEMENT_3D('',#431,#340,#341);
#297=AXIS2_PLACEMENT_3D('',#432,#342,#343);
#298=AXIS2_PLACEMENT_3D('',#435,#344,#345);
#299=AXIS2_PLACEMENT_3D('',#436,#346,#347);
#300=AXIS2_PLACEMENT_3D('',#438,#349,#350);
#301=AXIS2_PLACEMENT_3D('',#443,#352,#353);
#302=AXIS2_PLACEMENT_3D('',#446,#355,#356);
#303=AXIS2_PLACEMENT_3D('',#447,#357,#358);
#304=AXIS2_PLACEMENT_3D('',#448,#359,#360);
#305=AXIS2_PLACEMENT_3D('',#452,#362,#363);
#306=AXIS2_PLACEMENT_3D('',#453,#364,#365);
#307=AXIS2_PLACEMENT_3D('',#458,#367,#368);
#308=AXIS2_PLACEMENT_3D('',#459,#369,#370);
#309=AXIS2_PLACEMENT_3D('',#460,#371,#372);
#310=AXIS2_PLACEMENT_3D('',#463,#373,#374);
#311=AXIS2_PLACEMENT_3D('',#464,#375,#376);
#312=AXIS2_PLACEMENT_3D('',#466,#377,#378);
#313=AXIS2_PLACEMENT_3D('',#467,#379,#380);
#314=AXIS2_PLACEMENT_3D('',#470,#381,#382);
#315=AXIS2_PLACEMENT_3D('',#472,#383,#384);
#316=AXIS2_PLACEMENT_3D('',#473,#385,#386);
#317=AXIS2_PLACEMENT_3D('',#474,#387,#388);
#318=AXIS2_PLACEMENT_3D('',#475,#389,#390);
#319=AXIS2_PLACEMENT_3D('',#478,#391,#392);
#320=AXIS2_PLACEMENT_3D('',#479,#393,#394);
#321=AXIS2_PLACEMENT_3D('',#481,#396,#397);
#322=AXIS2_PLACEMENT_3D('',#484,#398,#399);
#323=AXIS2_PLACEMENT_3D('',#485,#400,#401);
#324=AXIS2_PLACEMENT_3D('',#487,#403,#404);
#325=AXIS2_PLACEMENT_3D('',#490,#405,#406);
#326=AXIS2_PLACEMENT_3D('',#491,#407,#408);
#327=AXIS2_PLACEMENT_3D('',#493,#410,#411);
#328=AXIS2_PLACEMENT_3D('',#494,#412,#413);
#329=AXIS2_PLACEMENT_3D('',#497,#416,#417);
#330=AXIS2_PLACEMENT_3D('',#500,#420,#421);
#331=DIRECTION('axis',(0.,0.,1.));
#332=DIRECTION('refdir',(1.,0.,0.));
#333=DIRECTION('center_axis',(0.,1.,-2.22044604925031E-16));
#334=DIRECTION('ref_axis',(-1.,0.,0.));
#335=DIRECTION('center_axis',(0.,1.,-2.22044604925031E-16));
#336=DIRECTION('ref_axis',(-1.,0.,0.));
#337=DIRECTION('',(-0.707106781186549,-0.707106781186546,2.43604851491926E-16));
#338=DIRECTION('center_axis',(0.,-1.,2.22044604925031E-16));
#339=DIRECTION('ref_axis',(-1.,0.,0.));
#340=DIRECTION('center_axis',(0.,-1.,2.22044604925031E-16));
#341=DIRECTION('ref_axis',(-1.,0.,0.));
#342=DIRECTION('center_axis',(0.,1.,-2.22044604925031E-16));
#343=DIRECTION('ref_axis',(1.,0.,0.));
#344=DIRECTION('center_axis',(0.,1.,-2.22044604925031E-16));
#345=DIRECTION('ref_axis',(1.,0.,0.));
#346=DIRECTION('center_axis',(0.,1.,-2.22044604925031E-16));
#347=DIRECTION('ref_axis',(1.,0.,0.));
#348=DIRECTION('',(0.,1.,-2.22044604925031E-16));
#349=DIRECTION('center_axis',(0.,-1.,2.22044604925031E-16));
#350=DIRECTION('ref_axis',(0.,-2.22044604925031E-16,-1.));
#351=DIRECTION('',(0.,2.22044604925031E-16,1.));
#352=DIRECTION('center_axis',(0.,-1.,2.22044604925031E-16));
#353=DIRECTION('ref_axis',(1.,0.,0.));
#354=DIRECTION('',(0.,-2.22044604925031E-16,-1.));
#355=DIRECTION('center_axis',(0.,-1.,2.22044604925031E-16));
#356=DIRECTION('ref_axis',(1.,0.,0.));
#357=DIRECTION('center_axis',(0.,1.,0.));
#358=DIRECTION('ref_axis',(0.,0.,1.));
#359=DIRECTION('center_axis',(0.,1.,0.));
#360=DIRECTION('ref_axis',(0.,0.,1.));
#361=DIRECTION('',(0.,2.22044604925031E-16,1.));
#362=DIRECTION('center_axis',(0.,-1.,0.));
#363=DIRECTION('ref_axis',(-1.,0.,0.));
#364=DIRECTION('center_axis',(0.,1.,0.));
#365=DIRECTION('ref_axis',(0.,0.,1.));
#366=DIRECTION('',(0.,-2.22044604925031E-16,-1.));
#367=DIRECTION('center_axis',(0.,-1.,0.));
#368=DIRECTION('ref_axis',(-1.,0.,0.));
#369=DIRECTION('center_axis',(0.,-1.,0.));
#370=DIRECTION('ref_axis',(-1.,0.,0.));
#371=DIRECTION('center_axis',(0.,1.,0.));
#372=DIRECTION('ref_axis',(0.,0.,1.));
#373=DIRECTION('center_axis',(0.,-1.,0.));
#374=DIRECTION('ref_axis',(-1.,0.,0.));
#375=DIRECTION('center_axis',(0.,-1.,0.));
#376=DIRECTION('ref_axis',(-1.,0.,0.));
#377=DIRECTION('center_axis',(0.,-1.,0.));
#378=DIRECTION('ref_axis',(-1.,0.,0.));
#379=DIRECTION('center_axis',(0.,-1.,0.));
#380=DIRECTION('ref_axis',(0.,0.,-1.));
#381=DIRECTION('center_axis',(0.,-1.,0.));
#382=DIRECTION('ref_axis',(-1.,0.,0.));
#383=DIRECTION('center_axis',(0.,-1.,0.));
#384=DIRECTION('ref_axis',(-1.,0.,0.));
#385=DIRECTION('center_axis',(-1.,0.,-1.22464679914735E-16));
#386=DIRECTION('ref_axis',(-1.22464679914735E-16,0.,1.));
#387=DIRECTION('center_axis',(0.,-1.,0.));
#388=DIRECTION('ref_axis',(-1.,0.,0.));
#389=DIRECTION('center_axis',(0.,-1.,0.));
#390=DIRECTION('ref_axis',(-1.,0.,0.));
#391=DIRECTION('center_axis',(0.,-1.,0.));
#392=DIRECTION('ref_axis',(-1.,0.,0.));
#393=DIRECTION('center_axis',(0.,-1.,0.));
#394=DIRECTION('ref_axis',(-1.,0.,0.));
#395=DIRECTION('',(0.,1.,0.));
#396=DIRECTION('center_axis',(0.,-1.,0.));
#397=DIRECTION('ref_axis',(-1.,0.,0.));
#398=DIRECTION('center_axis',(0.,-1.,0.));
#399=DIRECTION('ref_axis',(-1.,0.,0.));
#400=DIRECTION('center_axis',(0.,-1.,0.));
#401=DIRECTION('ref_axis',(-1.,0.,0.));
#402=DIRECTION('',(-0.777697438527816,0.628638762809989,-9.52404678798186E-17));
#403=DIRECTION('center_axis',(0.,-1.,0.));
#404=DIRECTION('ref_axis',(-1.,0.,0.));
#405=DIRECTION('center_axis',(0.,-1.,0.));
#406=DIRECTION('ref_axis',(-1.,0.,0.));
#407=DIRECTION('center_axis',(0.,-1.,0.));
#408=DIRECTION('ref_axis',(-1.,0.,0.));
#409=DIRECTION('',(0.,1.,0.));
#410=DIRECTION('center_axis',(0.,-1.,0.));
#411=DIRECTION('ref_axis',(0.,0.,-1.));
#412=DIRECTION('center_axis',(-1.,0.,0.));
#413=DIRECTION('ref_axis',(0.,-1.,2.22044604925031E-16));
#414=DIRECTION('',(0.,-1.,2.22044604925031E-16));
#415=DIRECTION('',(0.,1.,-2.22044604925031E-16));
#416=DIRECTION('center_axis',(1.,0.,0.));
#417=DIRECTION('ref_axis',(0.,1.,-2.22044604925031E-16));
#418=DIRECTION('',(0.,-1.,2.22044604925031E-16));
#419=DIRECTION('',(0.,1.,-2.22044604925031E-16));
#420=DIRECTION('center_axis',(0.,-1.,2.22044604925031E-16));
#421=DIRECTION('ref_axis',(1.,0.,0.));
#422=DIRECTION('',(0.,1.,-2.22044604925031E-16));
#423=CARTESIAN_POINT('',(0.,0.,0.));
#424=CARTESIAN_POINT('Origin',(0.,25.25,5.55111512312584E-17));
#425=CARTESIAN_POINT('',(6.2225,25.5,-7.6203647076944E-16));
#426=CARTESIAN_POINT('Origin',(0.,25.5,8.93631494195677E-31));
#427=CARTESIAN_POINT('',(5.7225,25.,8.11826433274589E-16));
#428=CARTESIAN_POINT('',(5.9725,25.25,-6.75909149559498E-16));
#429=CARTESIAN_POINT('',(-5.7225,25.,8.11826433274589E-16));
#430=CARTESIAN_POINT('Origin',(0.,25.,1.11022302462516E-16));
#431=CARTESIAN_POINT('Origin',(0.,25.,1.11022302462516E-16));
#432=CARTESIAN_POINT('Origin',(0.,16.5,1.99840144432528E-15));
#433=CARTESIAN_POINT('',(5.7225,16.5,1.99840144432528E-15));
#434=CARTESIAN_POINT('',(-5.7225,16.5,2.69920557513735E-15));
#435=CARTESIAN_POINT('Origin',(0.,16.5,1.99840144432528E-15));
#436=CARTESIAN_POINT('Origin',(0.,16.5,1.99840144432528E-15));
#437=CARTESIAN_POINT('',(-5.7225,16.5,2.69920557513735E-15));
#438=CARTESIAN_POINT('Origin',(0.,25.5,-1.32486794972297E-15));
#439=CARTESIAN_POINT('',(-9.5,25.5,-5.54526825320471));
#440=CARTESIAN_POINT('',(-9.5,25.5,5.54526825320471));
#441=CARTESIAN_POINT('',(-9.5,25.5,1.27681237764281));
#442=CARTESIAN_POINT('',(9.5,25.5,5.54526825320471));
#443=CARTESIAN_POINT('Origin',(0.,25.5,-1.32486794972297E-15));
#444=CARTESIAN_POINT('',(9.5,25.5,-5.54526825320471));
#445=CARTESIAN_POINT('',(9.5,25.5,1.27681237764281));
#446=CARTESIAN_POINT('Origin',(0.,25.5,-1.32486794972297E-15));
#447=CARTESIAN_POINT('Origin',(-5.5,16.5,0.));
#448=CARTESIAN_POINT('Origin',(-5.5,16.5,0.));
#449=CARTESIAN_POINT('',(9.5,16.5,-5.54526825320471));
#450=CARTESIAN_POINT('',(9.5,16.5,5.54526825320471));
#451=CARTESIAN_POINT('',(9.5,16.5,1.27681237764281));
#452=CARTESIAN_POINT('Origin',(0.,16.5,0.));
#453=CARTESIAN_POINT('Origin',(-5.5,16.5,0.));
#454=CARTESIAN_POINT('',(-9.5,16.5,5.54526825320471));
#455=CARTESIAN_POINT('',(-9.5,16.5,-5.54526825320471));
#456=CARTESIAN_POINT('',(-9.5,16.5,1.27681237764281));
#457=CARTESIAN_POINT('',(-11.,16.5,-6.73577984459779E-16));
#458=CARTESIAN_POINT('Origin',(0.,16.5,0.));
#459=CARTESIAN_POINT('Origin',(0.,16.5,0.));
#460=CARTESIAN_POINT('Origin',(-13.6,11.,0.));
#461=CARTESIAN_POINT('',(-16.1999999999999,11.,0.));
#462=CARTESIAN_POINT('',(-1.9839278146187E-15,11.,16.1999999999999));
#463=CARTESIAN_POINT('Origin',(0.,11.,0.));
#464=CARTESIAN_POINT('Origin',(0.,11.,0.));
#465=CARTESIAN_POINT('',(-11.,11.,0.));
#466=CARTESIAN_POINT('Origin',(0.,11.,0.));
#467=CARTESIAN_POINT('Origin',(0.,10.7,0.));
#468=CARTESIAN_POINT('',(-16.5,10.7,0.));
#469=CARTESIAN_POINT('',(16.5,10.7,2.02066721859313E-15));
#470=CARTESIAN_POINT('Origin',(0.,10.7,0.));
#471=CARTESIAN_POINT('',(-2.02066721859313E-15,10.7,16.5));
#472=CARTESIAN_POINT('Origin',(0.,10.7,0.));
#473=CARTESIAN_POINT('Origin',(-1.9839278146187E-15,10.7,16.1999999999999));
#474=CARTESIAN_POINT('Origin',(0.,10.7,0.));
#475=CARTESIAN_POINT('Origin',(0.,7.85000000000002,0.));
#476=CARTESIAN_POINT('',(-16.5,5.00000000000003,0.));
#477=CARTESIAN_POINT('',(16.5,5.00000000000003,2.02066721859313E-15));
#478=CARTESIAN_POINT('Origin',(0.,5.00000000000003,0.));
#479=CARTESIAN_POINT('Origin',(0.,5.00000000000003,0.));
#480=CARTESIAN_POINT('',(16.5,7.85000000000002,2.02066721859313E-15));
#481=CARTESIAN_POINT('Origin',(0.,2.57500000000002,0.));
#482=CARTESIAN_POINT('',(-22.5,0.150000000000006,0.));
#483=CARTESIAN_POINT('',(22.5,0.150000000000007,2.75545529808154E-15));
#484=CARTESIAN_POINT('Origin',(0.,0.150000000000006,0.));
#485=CARTESIAN_POINT('Origin',(0.,0.150000000000006,0.));
#486=CARTESIAN_POINT('',(19.5,2.57500000000002,2.38806125833734E-15));
#487=CARTESIAN_POINT('Origin',(0.,0.0750000000000028,0.));
#488=CARTESIAN_POINT('',(-22.5,0.,0.));
#489=CARTESIAN_POINT('',(22.5,0.,2.75545529808154E-15));
#490=CARTESIAN_POINT('Origin',(0.,0.,0.));
#491=CARTESIAN_POINT('Origin',(0.,0.,0.));
#492=CARTESIAN_POINT('',(22.5,0.0750000000000028,2.75545529808154E-15));
#493=CARTESIAN_POINT('Origin',(-11.25,0.,0.));
#494=CARTESIAN_POINT('Origin',(-9.5,21.,2.55362475528562));
#495=CARTESIAN_POINT('',(-9.5,25.5,5.54526825320471));
#496=CARTESIAN_POINT('',(-9.5,25.5,-5.54526825320471));
#497=CARTESIAN_POINT('Origin',(9.5,21.,2.55362475528562));
#498=CARTESIAN_POINT('',(9.5,25.5,-5.54526825320471));
#499=CARTESIAN_POINT('',(9.5,25.5,5.54526825320471));
#500=CARTESIAN_POINT('Origin',(0.,25.5,-1.32486794972297E-15));
#501=CARTESIAN_POINT('',(-11.,25.5,-2.67197942878506E-15));
#502=UNCERTAINTY_MEASURE_WITH_UNIT(LENGTH_MEASURE(0.01),#506,
'DISTANCE_ACCURACY_VALUE',
'Maximum model space distance between geometric entities at asserted c
onnectivities');
#503=UNCERTAINTY_MEASURE_WITH_UNIT(LENGTH_MEASURE(0.01),#506,
'DISTANCE_ACCURACY_VALUE',
'Maximum model space distance between geometric entities at asserted c
onnectivities');
#504=(
GEOMETRIC_REPRESENTATION_CONTEXT(3)
GLOBAL_UNCERTAINTY_ASSIGNED_CONTEXT((#502))
GLOBAL_UNIT_ASSIGNED_CONTEXT((#506,#508,#509))
REPRESENTATION_CONTEXT('','3D')
);
#505=(
GEOMETRIC_REPRESENTATION_CONTEXT(3)
GLOBAL_UNCERTAINTY_ASSIGNED_CONTEXT((#503))
GLOBAL_UNIT_ASSIGNED_CONTEXT((#506,#508,#509))
REPRESENTATION_CONTEXT('','3D')
);
#506=(
LENGTH_UNIT()
NAMED_UNIT(*)
SI_UNIT(.MILLI.,.METRE.)
);
#507=(
LENGTH_UNIT()
NAMED_UNIT(*)
SI_UNIT(.CENTI.,.METRE.)
);
#508=(
NAMED_UNIT(*)
PLANE_ANGLE_UNIT()
SI_UNIT($,.RADIAN.)
);
#509=(
NAMED_UNIT(*)
SI_UNIT($,.STERADIAN.)
SOLID_ANGLE_UNIT()
);
#510=SHAPE_DEFINITION_REPRESENTATION(#511,#512);
#511=PRODUCT_DEFINITION_SHAPE('',$,#514);
#512=SHAPE_REPRESENTATION('',(#292),#504);
#513=DESIGN_CONTEXT('part definition',#518,'design');
#514=PRODUCT_DEFINITION('vcr45nit','vcr45nit',#515,#513);
#515=PRODUCT_DEFINITION_FORMATION('',$,#520);
#516=PRODUCT_RELATED_PRODUCT_CATEGORY('vcr45nit','vcr45nit',(#520));
#517=APPLICATION_PROTOCOL_DEFINITION('international standard',
'ap203_configuration_controlled_3d_design_of_mechanical_parts_and_asse
mblies_mim_lf',2004,#518);
#518=APPLICATION_CONTEXT(
'Configuration Controlled 3D Design of Mechanical Parts and Assemblies');
#519=MECHANICAL_CONTEXT('part definition',#518,'mechanical');
#520=PRODUCT('vcr45nit','vcr45nit',$,(#519));
#521=PRESENTATION_STYLE_ASSIGNMENT((#524));
#522=PRESENTATION_STYLE_ASSIGNMENT((#525));
#523=PRESENTATION_STYLE_ASSIGNMENT((#526));
#524=SURFACE_STYLE_USAGE(.BOTH.,#533);
#525=SURFACE_STYLE_USAGE(.BOTH.,#534);
#526=SURFACE_STYLE_USAGE(.BOTH.,#535);
#527=SURFACE_STYLE_RENDERING_WITH_PROPERTIES($,#545,(#530));
#528=SURFACE_STYLE_RENDERING_WITH_PROPERTIES($,#546,(#531));
#529=SURFACE_STYLE_RENDERING_WITH_PROPERTIES($,#547,(#532));
#530=SURFACE_STYLE_TRANSPARENT(0.);
#531=SURFACE_STYLE_TRANSPARENT(0.);
#532=SURFACE_STYLE_TRANSPARENT(0.);
#533=SURFACE_SIDE_STYLE('',(#536,#527));
#534=SURFACE_SIDE_STYLE('',(#537,#528));
#535=SURFACE_SIDE_STYLE('',(#538,#529));
#536=SURFACE_STYLE_FILL_AREA(#539);
#537=SURFACE_STYLE_FILL_AREA(#540);
#538=SURFACE_STYLE_FILL_AREA(#541);
#539=FILL_AREA_STYLE('',(#542));
#540=FILL_AREA_STYLE('',(#543));
#541=FILL_AREA_STYLE('',(#544));
#542=FILL_AREA_STYLE_COLOUR('',#545);
#543=FILL_AREA_STYLE_COLOUR('',#546);
#544=FILL_AREA_STYLE_COLOUR('',#547);
#545=COLOUR_RGB('',0.749019607843137,0.749019607843137,0.749019607843137);
#546=COLOUR_RGB('',0.745098039215686,0.737254901960784,0.729411764705882);
#547=COLOUR_RGB('',0.313725490196078,0.313725490196078,0.313725490196078);
ENDSEC;
END-ISO-10303-21;
