ISO-10303-21;
HEADER;
/* Generated by software containing ST-Developer
 * from STEP Tools, Inc. (www.steptools.com) 
 */
/* OPTION: using custom renumber hook */

FILE_DESCRIPTION(
/* description */ ('STEP AP214'),
/* implementation_level */ '2;1');

FILE_NAME(
/* name */ 'A0160010',
/* time_stamp */ '2023-04-20T09:09:38+02:00',
/* author */ ('License CC BY-ND 4.0'),
/* organization */ ('CADENAS'),
/* preprocessor_version */ 'ST-DEVELOPER v19.3',
/* originating_system */ 'PARTsolutions',
/* authorisation */ '  ');

FILE_SCHEMA (('AUTOMOTIVE_DESIGN {1 0 10303 214 3 1 1}'));
ENDSEC;

DATA;
#10=PROPERTY_DEFINITION_REPRESENTATION(#14,#12);
#11=PROPERTY_DEFINITION_REPRESENTATION(#15,#13);
#12=REPRESENTATION('',(#16),#637);
#13=REPRESENTATION('',(#17),#637);
#14=PROPERTY_DEFINITION('pmi validation property','',#642);
#15=PROPERTY_DEFINITION('pmi validation property','',#642);
#16=VALUE_REPRESENTATION_ITEM('number of annotations',COUNT_MEASURE(0.));
#17=VALUE_REPRESENTATION_ITEM('number of views',COUNT_MEASURE(0.));
#18=SHAPE_REPRESENTATION_RELATIONSHIP('','',#361,#19);
#19=ADVANCED_BREP_SHAPE_REPRESENTATION('',(#359),#637);
#20=CYLINDRICAL_SURFACE('',#383,4.5);
#21=CYLINDRICAL_SURFACE('',#387,3.5);
#22=CYLINDRICAL_SURFACE('',#391,4.5);
#23=CYLINDRICAL_SURFACE('',#397,2.075);
#24=CYLINDRICAL_SURFACE('',#402,2.075);
#25=CYLINDRICAL_SURFACE('',#404,1.50000000000001);
#26=CYLINDRICAL_SURFACE('',#408,4.5);
#27=CYLINDRICAL_SURFACE('',#411,2.6);
#28=CYLINDRICAL_SURFACE('',#417,4.5);
#29=CYLINDRICAL_SURFACE('',#420,2.6);
#30=CONICAL_SURFACE('',#381,4.5,0.785398163397446);
#31=CONICAL_SURFACE('',#385,3.5,0.785398163397451);
#32=CONICAL_SURFACE('',#389,4.5,0.78539816339745);
#33=CONICAL_SURFACE('',#393,4.3,0.785398163397446);
#34=CONICAL_SURFACE('',#394,1732.0508075689,1.0471975511966);
#35=CONICAL_SURFACE('',#399,1732.05080756888,1.0471975511966);
#36=CONICAL_SURFACE('',#405,2.375,0.523598775598301);
#37=CONICAL_SURFACE('',#406,4.5,0.785398163397448);
#38=CONICAL_SURFACE('',#409,2.6,0.785398163397449);
#39=CONICAL_SURFACE('',#413,3.725,1.39626340159547);
#40=CONICAL_SURFACE('',#414,2.375,0.523598775598301);
#41=CONICAL_SURFACE('',#415,4.5,0.785398163397448);
#42=CONICAL_SURFACE('',#418,2.6,0.785398163397449);
#43=CONICAL_SURFACE('',#422,3.725,1.39626340159547);
#44=ORIENTED_EDGE('',*,*,#104,.F.);
#45=ORIENTED_EDGE('',*,*,#105,.T.);
#46=ORIENTED_EDGE('',*,*,#106,.F.);
#47=ORIENTED_EDGE('',*,*,#107,.T.);
#48=ORIENTED_EDGE('',*,*,#108,.F.);
#49=ORIENTED_EDGE('',*,*,#109,.T.);
#50=ORIENTED_EDGE('',*,*,#110,.F.);
#51=ORIENTED_EDGE('',*,*,#111,.T.);
#52=ORIENTED_EDGE('',*,*,#112,.F.);
#53=ORIENTED_EDGE('',*,*,#113,.F.);
#54=ORIENTED_EDGE('',*,*,#114,.T.);
#55=ORIENTED_EDGE('',*,*,#115,.F.);
#56=ORIENTED_EDGE('',*,*,#116,.F.);
#57=ORIENTED_EDGE('',*,*,#112,.T.);
#58=ORIENTED_EDGE('',*,*,#117,.F.);
#59=ORIENTED_EDGE('',*,*,#116,.T.);
#60=ORIENTED_EDGE('',*,*,#117,.T.);
#61=ORIENTED_EDGE('',*,*,#118,.F.);
#62=ORIENTED_EDGE('',*,*,#119,.F.);
#63=ORIENTED_EDGE('',*,*,#118,.T.);
#64=ORIENTED_EDGE('',*,*,#120,.F.);
#65=ORIENTED_EDGE('',*,*,#119,.T.);
#66=ORIENTED_EDGE('',*,*,#121,.F.);
#67=ORIENTED_EDGE('',*,*,#120,.T.);
#68=ORIENTED_EDGE('',*,*,#121,.T.);
#69=ORIENTED_EDGE('',*,*,#114,.F.);
#70=ORIENTED_EDGE('',*,*,#122,.T.);
#71=ORIENTED_EDGE('',*,*,#123,.F.);
#72=ORIENTED_EDGE('',*,*,#124,.F.);
#73=ORIENTED_EDGE('',*,*,#122,.F.);
#74=ORIENTED_EDGE('',*,*,#125,.F.);
#75=ORIENTED_EDGE('',*,*,#126,.T.);
#76=ORIENTED_EDGE('',*,*,#125,.T.);
#77=ORIENTED_EDGE('',*,*,#127,.F.);
#78=ORIENTED_EDGE('',*,*,#123,.T.);
#79=ORIENTED_EDGE('',*,*,#126,.F.);
#80=ORIENTED_EDGE('',*,*,#111,.F.);
#81=ORIENTED_EDGE('',*,*,#127,.T.);
#82=ORIENTED_EDGE('',*,*,#128,.F.);
#83=ORIENTED_EDGE('',*,*,#110,.T.);
#84=ORIENTED_EDGE('',*,*,#109,.F.);
#85=ORIENTED_EDGE('',*,*,#128,.T.);
#86=ORIENTED_EDGE('',*,*,#108,.T.);
#87=ORIENTED_EDGE('',*,*,#129,.F.);
#88=ORIENTED_EDGE('',*,*,#130,.F.);
#89=ORIENTED_EDGE('',*,*,#129,.T.);
#90=ORIENTED_EDGE('',*,*,#115,.T.);
#91=ORIENTED_EDGE('',*,*,#130,.T.);
#92=ORIENTED_EDGE('',*,*,#107,.F.);
#93=ORIENTED_EDGE('',*,*,#124,.T.);
#94=ORIENTED_EDGE('',*,*,#131,.F.);
#95=ORIENTED_EDGE('',*,*,#106,.T.);
#96=ORIENTED_EDGE('',*,*,#105,.F.);
#97=ORIENTED_EDGE('',*,*,#131,.T.);
#98=ORIENTED_EDGE('',*,*,#104,.T.);
#99=ORIENTED_EDGE('',*,*,#132,.F.);
#100=ORIENTED_EDGE('',*,*,#133,.F.);
#101=ORIENTED_EDGE('',*,*,#132,.T.);
#102=ORIENTED_EDGE('',*,*,#113,.T.);
#103=ORIENTED_EDGE('',*,*,#133,.T.);
#104=EDGE_CURVE('',#134,#134,#164,.T.);
#105=EDGE_CURVE('',#135,#135,#165,.T.);
#106=EDGE_CURVE('',#136,#136,#166,.T.);
#107=EDGE_CURVE('',#137,#137,#167,.T.);
#108=EDGE_CURVE('',#138,#138,#168,.T.);
#109=EDGE_CURVE('',#139,#139,#169,.T.);
#110=EDGE_CURVE('',#140,#140,#170,.T.);
#111=EDGE_CURVE('',#141,#141,#171,.T.);
#112=EDGE_CURVE('',#142,#142,#172,.T.);
#113=EDGE_CURVE('',#143,#143,#173,.T.);
#114=EDGE_CURVE('',#144,#144,#174,.T.);
#115=EDGE_CURVE('',#145,#145,#175,.T.);
#116=EDGE_CURVE('',#146,#146,#176,.T.);
#117=EDGE_CURVE('',#147,#147,#177,.T.);
#118=EDGE_CURVE('',#148,#148,#178,.T.);
#119=EDGE_CURVE('',#149,#149,#179,.T.);
#120=EDGE_CURVE('',#150,#150,#180,.T.);
#121=EDGE_CURVE('',#151,#151,#181,.T.);
#122=EDGE_CURVE('',#152,#152,#182,.T.);
#123=EDGE_CURVE('',#153,#153,#183,.T.);
#124=EDGE_CURVE('',#154,#154,#184,.T.);
#125=EDGE_CURVE('',#155,#155,#185,.T.);
#126=EDGE_CURVE('',#156,#156,#186,.T.);
#127=EDGE_CURVE('',#157,#157,#187,.T.);
#128=EDGE_CURVE('',#158,#158,#188,.T.);
#129=EDGE_CURVE('',#159,#159,#189,.T.);
#130=EDGE_CURVE('',#160,#160,#190,.T.);
#131=EDGE_CURVE('',#161,#161,#191,.T.);
#132=EDGE_CURVE('',#162,#162,#192,.T.);
#133=EDGE_CURVE('',#163,#163,#193,.T.);
#134=VERTEX_POINT('',#548);
#135=VERTEX_POINT('',#550);
#136=VERTEX_POINT('',#553);
#137=VERTEX_POINT('',#555);
#138=VERTEX_POINT('',#558);
#139=VERTEX_POINT('',#560);
#140=VERTEX_POINT('',#563);
#141=VERTEX_POINT('',#565);
#142=VERTEX_POINT('',#568);
#143=VERTEX_POINT('',#570);
#144=VERTEX_POINT('',#573);
#145=VERTEX_POINT('',#575);
#146=VERTEX_POINT('',#578);
#147=VERTEX_POINT('',#581);
#148=VERTEX_POINT('',#584);
#149=VERTEX_POINT('',#587);
#150=VERTEX_POINT('',#590);
#151=VERTEX_POINT('',#593);
#152=VERTEX_POINT('',#597);
#153=VERTEX_POINT('',#599);
#154=VERTEX_POINT('',#602);
#155=VERTEX_POINT('',#605);
#156=VERTEX_POINT('',#607);
#157=VERTEX_POINT('',#610);
#158=VERTEX_POINT('',#615);
#159=VERTEX_POINT('',#619);
#160=VERTEX_POINT('',#622);
#161=VERTEX_POINT('',#627);
#162=VERTEX_POINT('',#631);
#163=VERTEX_POINT('',#634);
#164=CIRCLE('',#364,2.8);
#165=CIRCLE('',#365,4.5);
#166=CIRCLE('',#367,4.2);
#167=CIRCLE('',#368,2.375);
#168=CIRCLE('',#370,2.8);
#169=CIRCLE('',#371,4.5);
#170=CIRCLE('',#373,4.2);
#171=CIRCLE('',#374,2.375);
#172=CIRCLE('',#376,4.3);
#173=CIRCLE('',#377,3.725);
#174=CIRCLE('',#379,4.3);
#175=CIRCLE('',#380,3.725);
#176=CIRCLE('',#382,4.5);
#177=CIRCLE('',#384,4.5);
#178=CIRCLE('',#386,3.5);
#179=CIRCLE('',#388,3.5);
#180=CIRCLE('',#390,4.5);
#181=CIRCLE('',#392,4.5);
#182=CIRCLE('',#395,2.075);
#183=CIRCLE('',#396,1.50000000000001);
#184=CIRCLE('',#398,2.075);
#185=CIRCLE('',#400,2.075);
#186=CIRCLE('',#401,1.50000000000001);
#187=CIRCLE('',#403,2.075);
#188=CIRCLE('',#407,4.5);
#189=CIRCLE('',#410,2.6);
#190=CIRCLE('',#412,2.6);
#191=CIRCLE('',#416,4.5);
#192=CIRCLE('',#419,2.6);
#193=CIRCLE('',#421,2.6);
#194=EDGE_LOOP('',(#44));
#195=EDGE_LOOP('',(#45));
#196=EDGE_LOOP('',(#46));
#197=EDGE_LOOP('',(#47));
#198=EDGE_LOOP('',(#48));
#199=EDGE_LOOP('',(#49));
#200=EDGE_LOOP('',(#50));
#201=EDGE_LOOP('',(#51));
#202=EDGE_LOOP('',(#52));
#203=EDGE_LOOP('',(#53));
#204=EDGE_LOOP('',(#54));
#205=EDGE_LOOP('',(#55));
#206=EDGE_LOOP('',(#56));
#207=EDGE_LOOP('',(#57));
#208=EDGE_LOOP('',(#58));
#209=EDGE_LOOP('',(#59));
#210=EDGE_LOOP('',(#60));
#211=EDGE_LOOP('',(#61));
#212=EDGE_LOOP('',(#62));
#213=EDGE_LOOP('',(#63));
#214=EDGE_LOOP('',(#64));
#215=EDGE_LOOP('',(#65));
#216=EDGE_LOOP('',(#66));
#217=EDGE_LOOP('',(#67));
#218=EDGE_LOOP('',(#68));
#219=EDGE_LOOP('',(#69));
#220=EDGE_LOOP('',(#70));
#221=EDGE_LOOP('',(#71));
#222=EDGE_LOOP('',(#72));
#223=EDGE_LOOP('',(#73));
#224=EDGE_LOOP('',(#74));
#225=EDGE_LOOP('',(#75));
#226=EDGE_LOOP('',(#76));
#227=EDGE_LOOP('',(#77));
#228=EDGE_LOOP('',(#78));
#229=EDGE_LOOP('',(#79));
#230=EDGE_LOOP('',(#80));
#231=EDGE_LOOP('',(#81));
#232=EDGE_LOOP('',(#82));
#233=EDGE_LOOP('',(#83));
#234=EDGE_LOOP('',(#84));
#235=EDGE_LOOP('',(#85));
#236=EDGE_LOOP('',(#86));
#237=EDGE_LOOP('',(#87));
#238=EDGE_LOOP('',(#88));
#239=EDGE_LOOP('',(#89));
#240=EDGE_LOOP('',(#90));
#241=EDGE_LOOP('',(#91));
#242=EDGE_LOOP('',(#92));
#243=EDGE_LOOP('',(#93));
#244=EDGE_LOOP('',(#94));
#245=EDGE_LOOP('',(#95));
#246=EDGE_LOOP('',(#96));
#247=EDGE_LOOP('',(#97));
#248=EDGE_LOOP('',(#98));
#249=EDGE_LOOP('',(#99));
#250=EDGE_LOOP('',(#100));
#251=EDGE_LOOP('',(#101));
#252=EDGE_LOOP('',(#102));
#253=EDGE_LOOP('',(#103));
#254=FACE_BOUND('',#194,.T.);
#255=FACE_BOUND('',#195,.T.);
#256=FACE_BOUND('',#196,.T.);
#257=FACE_BOUND('',#197,.T.);
#258=FACE_BOUND('',#198,.T.);
#259=FACE_BOUND('',#199,.T.);
#260=FACE_BOUND('',#200,.T.);
#261=FACE_BOUND('',#201,.T.);
#262=FACE_BOUND('',#202,.T.);
#263=FACE_BOUND('',#203,.T.);
#264=FACE_BOUND('',#204,.T.);
#265=FACE_BOUND('',#205,.T.);
#266=FACE_BOUND('',#206,.T.);
#267=FACE_BOUND('',#207,.T.);
#268=FACE_BOUND('',#208,.T.);
#269=FACE_BOUND('',#209,.T.);
#270=FACE_BOUND('',#210,.T.);
#271=FACE_BOUND('',#211,.T.);
#272=FACE_BOUND('',#212,.T.);
#273=FACE_BOUND('',#213,.T.);
#274=FACE_BOUND('',#214,.T.);
#275=FACE_BOUND('',#215,.T.);
#276=FACE_BOUND('',#216,.T.);
#277=FACE_BOUND('',#217,.T.);
#278=FACE_BOUND('',#218,.T.);
#279=FACE_BOUND('',#219,.T.);
#280=FACE_BOUND('',#220,.T.);
#281=FACE_BOUND('',#221,.T.);
#282=FACE_BOUND('',#222,.T.);
#283=FACE_BOUND('',#223,.T.);
#284=FACE_BOUND('',#224,.T.);
#285=FACE_BOUND('',#225,.T.);
#286=FACE_BOUND('',#226,.T.);
#287=FACE_BOUND('',#227,.T.);
#288=FACE_BOUND('',#228,.T.);
#289=FACE_BOUND('',#229,.T.);
#290=FACE_BOUND('',#230,.T.);
#291=FACE_BOUND('',#231,.T.);
#292=FACE_BOUND('',#232,.T.);
#293=FACE_BOUND('',#233,.T.);
#294=FACE_BOUND('',#234,.T.);
#295=FACE_BOUND('',#235,.T.);
#296=FACE_BOUND('',#236,.T.);
#297=FACE_BOUND('',#237,.T.);
#298=FACE_BOUND('',#238,.T.);
#299=FACE_BOUND('',#239,.T.);
#300=FACE_BOUND('',#240,.T.);
#301=FACE_BOUND('',#241,.T.);
#302=FACE_BOUND('',#242,.T.);
#303=FACE_BOUND('',#243,.T.);
#304=FACE_BOUND('',#244,.T.);
#305=FACE_BOUND('',#245,.T.);
#306=FACE_BOUND('',#246,.T.);
#307=FACE_BOUND('',#247,.T.);
#308=FACE_BOUND('',#248,.T.);
#309=FACE_BOUND('',#249,.T.);
#310=FACE_BOUND('',#250,.T.);
#311=FACE_BOUND('',#251,.T.);
#312=FACE_BOUND('',#252,.T.);
#313=FACE_BOUND('',#253,.T.);
#314=PLANE('',#363);
#315=PLANE('',#366);
#316=PLANE('',#369);
#317=PLANE('',#372);
#318=PLANE('',#375);
#319=PLANE('',#378);
#320=ADVANCED_FACE('',(#254,#255),#314,.T.);
#321=ADVANCED_FACE('',(#256,#257),#315,.T.);
#322=ADVANCED_FACE('',(#258,#259),#316,.T.);
#323=ADVANCED_FACE('',(#260,#261),#317,.T.);
#324=ADVANCED_FACE('',(#262,#263),#318,.T.);
#325=ADVANCED_FACE('',(#264,#265),#319,.T.);
#326=ADVANCED_FACE('',(#266,#267),#30,.T.);
#327=ADVANCED_FACE('',(#268,#269),#20,.T.);
#328=ADVANCED_FACE('',(#270,#271),#31,.T.);
#329=ADVANCED_FACE('',(#272,#273),#21,.T.);
#330=ADVANCED_FACE('',(#274,#275),#32,.T.);
#331=ADVANCED_FACE('',(#276,#277),#22,.T.);
#332=ADVANCED_FACE('',(#278,#279),#33,.T.);
#333=ADVANCED_FACE('',(#280,#281),#34,.F.);
#334=ADVANCED_FACE('',(#282,#283),#23,.F.);
#335=ADVANCED_FACE('',(#284,#285),#35,.F.);
#336=ADVANCED_FACE('',(#286,#287),#24,.F.);
#337=ADVANCED_FACE('',(#288,#289),#25,.F.);
#338=ADVANCED_FACE('',(#290,#291),#36,.F.);
#339=ADVANCED_FACE('',(#292,#293),#37,.T.);
#340=ADVANCED_FACE('',(#294,#295),#26,.T.);
#341=ADVANCED_FACE('',(#296,#297),#38,.T.);
#342=ADVANCED_FACE('',(#298,#299),#27,.T.);
#343=ADVANCED_FACE('',(#300,#301),#39,.T.);
#344=ADVANCED_FACE('',(#302,#303),#40,.F.);
#345=ADVANCED_FACE('',(#304,#305),#41,.T.);
#346=ADVANCED_FACE('',(#306,#307),#28,.T.);
#347=ADVANCED_FACE('',(#308,#309),#42,.T.);
#348=ADVANCED_FACE('',(#310,#311),#29,.T.);
#349=ADVANCED_FACE('',(#312,#313),#43,.T.);
#350=CLOSED_SHELL('',(#320,#321,#322,#323,#324,#325,#326,#327,#328,#329,
#330,#331,#332,#333,#334,#335,#336,#337,#338,#339,#340,#341,#342,#343,#344,
#345,#346,#347,#348,#349));
#351=STYLED_ITEM('',(#352),#359);
#352=PRESENTATION_STYLE_ASSIGNMENT((#353));
#353=SURFACE_STYLE_USAGE(.BOTH.,#354);
#354=SURFACE_SIDE_STYLE('',(#355));
#355=SURFACE_STYLE_FILL_AREA(#356);
#356=FILL_AREA_STYLE('',(#357));
#357=FILL_AREA_STYLE_COLOUR('',#358);
#358=COLOUR_RGB('',0.752941176470588,0.752941176470588,0.752941176470588);
#359=MANIFOLD_SOLID_BREP('A0160010',#350);
#360=SHAPE_DEFINITION_REPRESENTATION(#642,#361);
#361=SHAPE_REPRESENTATION('A0160010',(#362),#637);
#362=AXIS2_PLACEMENT_3D('',#545,#423,#424);
#363=AXIS2_PLACEMENT_3D('',#546,#425,#426);
#364=AXIS2_PLACEMENT_3D('',#547,#427,#428);
#365=AXIS2_PLACEMENT_3D('',#549,#429,#430);
#366=AXIS2_PLACEMENT_3D('',#551,#431,#432);
#367=AXIS2_PLACEMENT_3D('',#552,#433,#434);
#368=AXIS2_PLACEMENT_3D('',#554,#435,#436);
#369=AXIS2_PLACEMENT_3D('',#556,#437,#438);
#370=AXIS2_PLACEMENT_3D('',#557,#439,#440);
#371=AXIS2_PLACEMENT_3D('',#559,#441,#442);
#372=AXIS2_PLACEMENT_3D('',#561,#443,#444);
#373=AXIS2_PLACEMENT_3D('',#562,#445,#446);
#374=AXIS2_PLACEMENT_3D('',#564,#447,#448);
#375=AXIS2_PLACEMENT_3D('',#566,#449,#450);
#376=AXIS2_PLACEMENT_3D('',#567,#451,#452);
#377=AXIS2_PLACEMENT_3D('',#569,#453,#454);
#378=AXIS2_PLACEMENT_3D('',#571,#455,#456);
#379=AXIS2_PLACEMENT_3D('',#572,#457,#458);
#380=AXIS2_PLACEMENT_3D('',#574,#459,#460);
#381=AXIS2_PLACEMENT_3D('',#576,#461,#462);
#382=AXIS2_PLACEMENT_3D('',#577,#463,#464);
#383=AXIS2_PLACEMENT_3D('',#579,#465,#466);
#384=AXIS2_PLACEMENT_3D('',#580,#467,#468);
#385=AXIS2_PLACEMENT_3D('',#582,#469,#470);
#386=AXIS2_PLACEMENT_3D('',#583,#471,#472);
#387=AXIS2_PLACEMENT_3D('',#585,#473,#474);
#388=AXIS2_PLACEMENT_3D('',#586,#475,#476);
#389=AXIS2_PLACEMENT_3D('',#588,#477,#478);
#390=AXIS2_PLACEMENT_3D('',#589,#479,#480);
#391=AXIS2_PLACEMENT_3D('',#591,#481,#482);
#392=AXIS2_PLACEMENT_3D('',#592,#483,#484);
#393=AXIS2_PLACEMENT_3D('',#594,#485,#486);
#394=AXIS2_PLACEMENT_3D('',#595,#487,#488);
#395=AXIS2_PLACEMENT_3D('',#596,#489,#490);
#396=AXIS2_PLACEMENT_3D('',#598,#491,#492);
#397=AXIS2_PLACEMENT_3D('',#600,#493,#494);
#398=AXIS2_PLACEMENT_3D('',#601,#495,#496);
#399=AXIS2_PLACEMENT_3D('',#603,#497,#498);
#400=AXIS2_PLACEMENT_3D('',#604,#499,#500);
#401=AXIS2_PLACEMENT_3D('',#606,#501,#502);
#402=AXIS2_PLACEMENT_3D('',#608,#503,#504);
#403=AXIS2_PLACEMENT_3D('',#609,#505,#506);
#404=AXIS2_PLACEMENT_3D('',#611,#507,#508);
#405=AXIS2_PLACEMENT_3D('',#612,#509,#510);
#406=AXIS2_PLACEMENT_3D('',#613,#511,#512);
#407=AXIS2_PLACEMENT_3D('',#614,#513,#514);
#408=AXIS2_PLACEMENT_3D('',#616,#515,#516);
#409=AXIS2_PLACEMENT_3D('',#617,#517,#518);
#410=AXIS2_PLACEMENT_3D('',#618,#519,#520);
#411=AXIS2_PLACEMENT_3D('',#620,#521,#522);
#412=AXIS2_PLACEMENT_3D('',#621,#523,#524);
#413=AXIS2_PLACEMENT_3D('',#623,#525,#526);
#414=AXIS2_PLACEMENT_3D('',#624,#527,#528);
#415=AXIS2_PLACEMENT_3D('',#625,#529,#530);
#416=AXIS2_PLACEMENT_3D('',#626,#531,#532);
#417=AXIS2_PLACEMENT_3D('',#628,#533,#534);
#418=AXIS2_PLACEMENT_3D('',#629,#535,#536);
#419=AXIS2_PLACEMENT_3D('',#630,#537,#538);
#420=AXIS2_PLACEMENT_3D('',#632,#539,#540);
#421=AXIS2_PLACEMENT_3D('',#633,#541,#542);
#422=AXIS2_PLACEMENT_3D('',#635,#543,#544);
#423=DIRECTION('',(0.,0.,1.));
#424=DIRECTION('',(1.,0.,0.));
#425=DIRECTION('',(4.43734259186819E-31,-1.,-5.91645678915759E-31));
#426=DIRECTION('',(-4.44089209850063E-16,5.91645678915759E-31,-1.));
#427=DIRECTION('',(4.43734259186819E-31,-1.,5.91645678915759E-31));
#428=DIRECTION('',(-4.44089209850063E-16,0.,-1.));
#429=DIRECTION('',(4.43734259186819E-31,-1.,5.91645678915759E-31));
#430=DIRECTION('',(-4.44089209850063E-16,0.,-1.));
#431=DIRECTION('',(-4.43734259186819E-31,1.,5.91645678915759E-31));
#432=DIRECTION('',(4.44089209850063E-16,-5.91645678915759E-31,1.));
#433=DIRECTION('',(4.43734259186819E-31,-1.,5.91645678915759E-31));
#434=DIRECTION('',(-4.44089209850063E-16,0.,-1.));
#435=DIRECTION('',(4.43734259186819E-31,-1.,5.91645678915759E-31));
#436=DIRECTION('',(-4.44089209850062E-16,0.,-1.));
#437=DIRECTION('',(-1.33329935720062E-16,1.,-8.86741131330898E-19));
#438=DIRECTION('',(5.55111512312578E-16,-8.86741131330824E-19,-1.));
#439=DIRECTION('',(-1.33329935720062E-16,1.,-8.86741131329715E-19));
#440=DIRECTION('',(5.55111512312578E-16,0.,-1.));
#441=DIRECTION('',(-1.33329935720062E-16,1.,-8.86741131330898E-19));
#442=DIRECTION('',(-1.,-1.33329935720062E-16,0.));
#443=DIRECTION('',(1.33329935720062E-16,-1.,8.86741131330898E-19));
#444=DIRECTION('',(-5.55111512312578E-16,8.86741131330824E-19,1.));
#445=DIRECTION('',(-1.33329935720062E-16,1.,-8.86741131329715E-19));
#446=DIRECTION('',(5.55111512312578E-16,0.,-1.));
#447=DIRECTION('',(-1.33329935720062E-16,1.,-8.86741131329715E-19));
#448=DIRECTION('',(5.55111512312578E-16,0.,-1.));
#449=DIRECTION('',(0.,1.,0.));
#450=DIRECTION('',(0.,0.,1.));
#451=DIRECTION('',(0.,-1.,0.));
#452=DIRECTION('',(0.,0.,-1.));
#453=DIRECTION('',(0.,1.,0.));
#454=DIRECTION('',(0.,0.,1.));
#455=DIRECTION('',(0.,-1.,0.));
#456=DIRECTION('',(0.,0.,-1.));
#457=DIRECTION('',(0.,-1.,0.));
#458=DIRECTION('',(0.,0.,-1.));
#459=DIRECTION('',(0.,-1.,0.));
#460=DIRECTION('',(0.,0.,-1.));
#461=DIRECTION('',(0.,-1.,0.));
#462=DIRECTION('',(0.,0.,-1.));
#463=DIRECTION('',(0.,-1.,0.));
#464=DIRECTION('',(0.,0.,-1.));
#465=DIRECTION('',(4.43734259186819E-31,-1.,5.91645678915759E-31));
#466=DIRECTION('',(-4.44089209850062E-16,0.,-1.));
#467=DIRECTION('',(0.,-1.,0.));
#468=DIRECTION('',(0.,0.,1.));
#469=DIRECTION('',(0.,1.,0.));
#470=DIRECTION('',(0.,0.,1.));
#471=DIRECTION('',(0.,-1.,0.));
#472=DIRECTION('',(0.,0.,-1.));
#473=DIRECTION('',(0.,-1.,0.));
#474=DIRECTION('',(0.,0.,-1.));
#475=DIRECTION('',(0.,-1.,0.));
#476=DIRECTION('',(0.,0.,-1.));
#477=DIRECTION('',(0.,-1.,0.));
#478=DIRECTION('',(0.,0.,-1.));
#479=DIRECTION('',(0.,-1.,0.));
#480=DIRECTION('',(0.,0.,-1.));
#481=DIRECTION('',(4.43734259186819E-31,-1.,5.91645678915759E-31));
#482=DIRECTION('',(-4.44089209850062E-16,0.,-1.));
#483=DIRECTION('',(0.,-1.,0.));
#484=DIRECTION('',(0.,0.,1.));
#485=DIRECTION('',(0.,1.,0.));
#486=DIRECTION('',(0.,0.,1.));
#487=DIRECTION('',(-2.42856507687226E-16,1.,0.));
#488=DIRECTION('',(-1.,-2.56395024851138E-16,0.));
#489=DIRECTION('',(-2.42856507687226E-16,1.,0.));
#490=DIRECTION('',(-1.,-2.09002828430941E-16,0.));
#491=DIRECTION('',(-2.42856507687226E-16,1.,0.));
#492=DIRECTION('',(-1.,-2.16840434497099E-16,0.));
#493=DIRECTION('',(-2.42856507687226E-16,1.,0.));
#494=DIRECTION('',(-1.,0.,0.));
#495=DIRECTION('',(4.43734259186819E-31,-1.,5.91645678915759E-31));
#496=DIRECTION('',(-4.44089209850063E-16,0.,-1.));
#497=DIRECTION('',(1.35771253093461E-16,-1.,0.));
#498=DIRECTION('',(1.,1.28197512425571E-16,0.));
#499=DIRECTION('',(-1.35771253093461E-16,1.,0.));
#500=DIRECTION('',(1.,1.35771253093461E-16,0.));
#501=DIRECTION('',(-1.35771253093461E-16,1.,0.));
#502=DIRECTION('',(1.,1.44560289664733E-16,8.88178419700125E-16));
#503=DIRECTION('',(-2.42856507687226E-16,1.,0.));
#504=DIRECTION('',(-1.,0.,0.));
#505=DIRECTION('',(-1.33329935720062E-16,1.,-8.86741131329715E-19));
#506=DIRECTION('',(1.,1.33329935720062E-16,0.));
#507=DIRECTION('',(0.,1.,0.));
#508=DIRECTION('',(0.,0.,1.));
#509=DIRECTION('',(1.33329935720062E-16,-1.,8.86741131329715E-19));
#510=DIRECTION('',(-5.55111512312578E-16,0.,1.));
#511=DIRECTION('',(-1.33329935720062E-16,1.,-8.86741131329715E-19));
#512=DIRECTION('',(5.55111512312578E-16,0.,-1.));
#513=DIRECTION('',(-1.33329935720062E-16,1.,-8.86741131329715E-19));
#514=DIRECTION('',(-1.,-1.33329935720062E-16,0.));
#515=DIRECTION('',(4.43734259186819E-31,-1.,5.91645678915759E-31));
#516=DIRECTION('',(-4.44089209850062E-16,0.,-1.));
#517=DIRECTION('',(1.33329935720062E-16,-1.,8.86741131329715E-19));
#518=DIRECTION('',(-5.55111512312578E-16,0.,1.));
#519=DIRECTION('',(-1.33329935720062E-16,1.,-8.86741131329715E-19));
#520=DIRECTION('',(1.,1.33329935720062E-16,0.));
#521=DIRECTION('',(4.43734259186819E-31,-1.,5.91645678915759E-31));
#522=DIRECTION('',(-4.44089209850063E-16,0.,-1.));
#523=DIRECTION('',(-1.33329935720062E-16,1.,-8.86741131329715E-19));
#524=DIRECTION('',(-1.,-1.33329935720062E-16,0.));
#525=DIRECTION('',(-1.33329935720062E-16,1.,-8.86741131329715E-19));
#526=DIRECTION('',(5.55111512312578E-16,0.,-1.));
#527=DIRECTION('',(-4.43734259186819E-31,1.,-5.91645678915759E-31));
#528=DIRECTION('',(4.44089209850063E-16,0.,1.));
#529=DIRECTION('',(4.43734259186819E-31,-1.,5.91645678915759E-31));
#530=DIRECTION('',(-4.44089209850063E-16,0.,-1.));
#531=DIRECTION('',(4.43734259186819E-31,-1.,5.91645678915759E-31));
#532=DIRECTION('',(-4.44089209850063E-16,0.,-1.));
#533=DIRECTION('',(4.43734259186819E-31,-1.,5.91645678915759E-31));
#534=DIRECTION('',(-4.44089209850062E-16,0.,-1.));
#535=DIRECTION('',(-4.43734259186819E-31,1.,-5.91645678915759E-31));
#536=DIRECTION('',(4.44089209850063E-16,0.,1.));
#537=DIRECTION('',(4.43734259186819E-31,-1.,5.91645678915759E-31));
#538=DIRECTION('',(-4.44089209850063E-16,0.,-1.));
#539=DIRECTION('',(4.43734259186819E-31,-1.,5.91645678915759E-31));
#540=DIRECTION('',(-4.44089209850063E-16,0.,-1.));
#541=DIRECTION('',(4.43734259186819E-31,-1.,5.91645678915759E-31));
#542=DIRECTION('',(-4.44089209850063E-16,0.,-1.));
#543=DIRECTION('',(4.43734259186819E-31,-1.,5.91645678915759E-31));
#544=DIRECTION('',(-4.44089209850063E-16,0.,-1.));
#545=CARTESIAN_POINT('',(0.,0.,0.));
#546=CARTESIAN_POINT('',(2.8,12.9,1.24344978758018E-15));
#547=CARTESIAN_POINT('',(-1.7242812045793E-15,12.9,3.23771934810827E-30));
#548=CARTESIAN_POINT('',(-2.96773099215948E-15,12.9,-2.8));
#549=CARTESIAN_POINT('',(-1.7242812045793E-15,12.9,3.23771934810827E-30));
#550=CARTESIAN_POINT('',(-3.72268264890458E-15,12.9,-4.5));
#551=CARTESIAN_POINT('',(4.2,14.1,1.86517468137026E-15));
#552=CARTESIAN_POINT('',(-1.7242812045793E-15,14.1,2.46734737035338E-30));
#553=CARTESIAN_POINT('',(-3.58945588594957E-15,14.1,-4.2));
#554=CARTESIAN_POINT('',(-1.7242812045793E-15,14.1,2.46734737035338E-30));
#555=CARTESIAN_POINT('',(-2.7789930779732E-15,14.1,-2.375));
#556=CARTESIAN_POINT('',(-2.79999999999999,-12.9,9.47927962257136E-16));
#557=CARTESIAN_POINT('',(4.9040354309669E-15,-12.9,1.53406215720039E-17));
#558=CARTESIAN_POINT('',(6.45834766544212E-15,-12.9,-2.8));
#559=CARTESIAN_POINT('',(-1.72428120457929E-15,-12.9,1.86336033235398E-29));
#560=CARTESIAN_POINT('',(-4.5,-12.9,1.86336033235398E-29));
#561=CARTESIAN_POINT('',(-4.19999999999999,-14.1,1.4152857219573E-15));
#562=CARTESIAN_POINT('',(5.06403135383097E-15,-14.1,1.64047109295995E-17));
#563=CARTESIAN_POINT('',(7.3954997055438E-15,-14.1,-4.2));
#564=CARTESIAN_POINT('',(5.06403135383097E-15,-14.1,1.64047109295995E-17));
#565=CARTESIAN_POINT('',(6.38242119557335E-15,-14.1,-2.375));
#566=CARTESIAN_POINT('',(0.,11.5,0.));
#567=CARTESIAN_POINT('',(0.,11.5,0.));
#568=CARTESIAN_POINT('',(0.,11.5,-4.3));
#569=CARTESIAN_POINT('',(-1.7242812045793E-15,11.5,4.19744875799532E-30));
#570=CARTESIAN_POINT('',(-1.7242812045793E-15,11.5,3.725));
#571=CARTESIAN_POINT('',(0.,-11.5,0.));
#572=CARTESIAN_POINT('',(0.,-11.5,0.));
#573=CARTESIAN_POINT('',(0.,-11.5,-4.3));
#574=CARTESIAN_POINT('',(4.71737352095881E-15,-11.5,1.40991839881425E-17));
#575=CARTESIAN_POINT('',(4.71737352095881E-15,-11.5,-3.725));
#576=CARTESIAN_POINT('',(0.,11.3,0.));
#577=CARTESIAN_POINT('',(0.,11.3,0.));
#578=CARTESIAN_POINT('',(0.,11.3,-4.5));
#579=CARTESIAN_POINT('',(-1.7242812045793E-15,7.1,6.80068974522466E-30));
#580=CARTESIAN_POINT('',(0.,2.5,0.));
#581=CARTESIAN_POINT('',(0.,2.5,4.5));
#582=CARTESIAN_POINT('',(0.,1.5,0.));
#583=CARTESIAN_POINT('',(0.,1.5,0.));
#584=CARTESIAN_POINT('',(0.,1.5,-3.5));
#585=CARTESIAN_POINT('',(0.,-11.5,0.));
#586=CARTESIAN_POINT('',(0.,-1.5,0.));
#587=CARTESIAN_POINT('',(0.,-1.5,-3.5));
#588=CARTESIAN_POINT('',(0.,-2.5,0.));
#589=CARTESIAN_POINT('',(0.,-2.5,0.));
#590=CARTESIAN_POINT('',(0.,-2.5,-4.5));
#591=CARTESIAN_POINT('',(-1.7242812045793E-15,7.1,6.80068974522466E-30));
#592=CARTESIAN_POINT('',(0.,-11.3,0.));
#593=CARTESIAN_POINT('',(0.,-11.3,4.5));
#594=CARTESIAN_POINT('',(0.,-11.5,0.));
#595=CARTESIAN_POINT('',(-2.40015571821078E-13,999.801998191432,0.));
#596=CARTESIAN_POINT('',(2.54999333071587E-15,0.999999999999999,0.));
#597=CARTESIAN_POINT('',(-2.075,0.999999999999999,0.));
#598=CARTESIAN_POINT('',(2.63061596101628E-15,0.668023595215976,0.));
#599=CARTESIAN_POINT('',(-1.50000000000001,0.668023595215976,0.));
#600=CARTESIAN_POINT('',(0.,11.5,0.));
#601=CARTESIAN_POINT('',(-1.7242812045793E-15,13.5803847577293,2.75623686201146E-30));
#602=CARTESIAN_POINT('',(-2.64576631501818E-15,13.5803847577293,-2.075));
#603=CARTESIAN_POINT('',(1.38939191196418E-13,-999.801998191432,0.));
#604=CARTESIAN_POINT('',(3.33059230971451E-15,-0.99999999999989,0.));
#605=CARTESIAN_POINT('',(2.075,-0.99999999999989,0.));
#606=CARTESIAN_POINT('',(3.28551945723953E-15,-0.668023595215971,0.));
#607=CARTESIAN_POINT('',(1.50000000000002,-0.668023595215971,1.3322676295502E-15));
#608=CARTESIAN_POINT('',(0.,11.5,0.));
#609=CARTESIAN_POINT('',(4.99475108697986E-15,-13.5803847577293,1.59439467218123E-17));
#610=CARTESIAN_POINT('',(2.07500000000001,-13.5803847577293,1.59439467218123E-17));
#611=CARTESIAN_POINT('',(-7.28569523061677E-16,3.,2.71050543121376E-17));
#612=CARTESIAN_POINT('',(5.06403135383097E-15,-14.1,1.64047109295995E-17));
#613=CARTESIAN_POINT('',(5.02403237311496E-15,-13.8,1.61386885902008E-17));
#614=CARTESIAN_POINT('',(5.02403237311496E-15,-13.8,1.61386885902008E-17));
#615=CARTESIAN_POINT('',(-4.5,-13.8,1.61386885902008E-17));
#616=CARTESIAN_POINT('',(-1.7242812045793E-15,7.1,6.80068974522466E-30));
#617=CARTESIAN_POINT('',(4.87736944382289E-15,-12.7,1.51632733457379E-17));
#618=CARTESIAN_POINT('',(4.87736944382289E-15,-12.7,1.51632733457379E-17));
#619=CARTESIAN_POINT('',(2.60000000000001,-12.7,1.51632733457379E-17));
#620=CARTESIAN_POINT('',(-1.7242812045793E-15,7.1,6.80068974522466E-30));
#621=CARTESIAN_POINT('',(4.74382189408783E-15,-11.698367853297,1.42750849227945E-17));
#622=CARTESIAN_POINT('',(-2.6,-11.698367853297,1.42750849227945E-17));
#623=CARTESIAN_POINT('',(4.71737352095881E-15,-11.5,1.40991839881425E-17));
#624=CARTESIAN_POINT('',(-1.7242812045793E-15,14.1,2.46734737035338E-30));
#625=CARTESIAN_POINT('',(-1.7242812045793E-15,13.8,2.85253335923082E-30));
#626=CARTESIAN_POINT('',(-1.7242812045793E-15,13.8,2.85253335923082E-30));
#627=CARTESIAN_POINT('',(-3.72268264890458E-15,13.8,-4.5));
#628=CARTESIAN_POINT('',(-1.7242812045793E-15,7.1,6.80068974522466E-30));
#629=CARTESIAN_POINT('',(-1.7242812045793E-15,12.7,3.23771934810827E-30));
#630=CARTESIAN_POINT('',(-1.7242812045793E-15,12.7,3.23771934810827E-30));
#631=CARTESIAN_POINT('',(-2.87891315018946E-15,12.7,-2.6));
#632=CARTESIAN_POINT('',(-1.7242812045793E-15,7.1,6.80068974522466E-30));
#633=CARTESIAN_POINT('',(-1.7242812045793E-15,11.698367853297,4.20068432030189E-30));
#634=CARTESIAN_POINT('',(-2.87891315018946E-15,11.698367853297,-2.6));
#635=CARTESIAN_POINT('',(-1.7242812045793E-15,11.5,4.20068432030189E-30));
#636=MECHANICAL_DESIGN_GEOMETRIC_PRESENTATION_REPRESENTATION('',(#351),
#637);
#637=(
GEOMETRIC_REPRESENTATION_CONTEXT(3)
GLOBAL_UNCERTAINTY_ASSIGNED_CONTEXT((#638))
GLOBAL_UNIT_ASSIGNED_CONTEXT((#641,#640,#639))
REPRESENTATION_CONTEXT('A0160010','TOP_LEVEL_ASSEMBLY_PART')
);
#638=UNCERTAINTY_MEASURE_WITH_UNIT(LENGTH_MEASURE(0.005),#641,
'DISTANCE_ACCURACY_VALUE','Maximum Tolerance applied to model');
#639=(
NAMED_UNIT(*)
SI_UNIT($,.STERADIAN.)
SOLID_ANGLE_UNIT()
);
#640=(
NAMED_UNIT(*)
PLANE_ANGLE_UNIT()
SI_UNIT($,.RADIAN.)
);
#641=(
LENGTH_UNIT()
NAMED_UNIT(*)
SI_UNIT(.MILLI.,.METRE.)
);
#642=PRODUCT_DEFINITION_SHAPE('','',#643);
#643=PRODUCT_DEFINITION('','',#645,#644);
#644=PRODUCT_DEFINITION_CONTEXT('',#651,'design');
#645=PRODUCT_DEFINITION_FORMATION_WITH_SPECIFIED_SOURCE('','',#647,
 .NOT_KNOWN.);
#646=PRODUCT_RELATED_PRODUCT_CATEGORY('','',(#647));
#647=PRODUCT('A0160010','A0160010','A0160010',(#649));
#648=PRODUCT_CATEGORY('','');
#649=PRODUCT_CONTEXT('',#651,'mechanical');
#650=APPLICATION_PROTOCOL_DEFINITION('international standard',
'automotive_design',2010,#651);
#651=APPLICATION_CONTEXT(
'core data for automotive mechanical design processes');
ENDSEC;
END-ISO-10303-21;
