ISO-10303-21;
HEADER;
/* Generated by software containing ST-Developer
 * from STEP Tools, Inc. (www.steptools.com) 
 */

FILE_DESCRIPTION(
/* description */ (''),
/* implementation_level */ '2;1');

FILE_NAME(
/* name */ 'H:\\cad\\neutral\\3d\\73328\\sd_14.stp',
/* time_stamp */ '2017-08-04T16:05:16+02:00',
/* author */ ('Hamoud'),
/* organization */ (''),
/* preprocessor_version */ 'ST-DEVELOPER v15.6',
/* originating_system */ 'Autodesk Inventor LT ',
/* authorisation */ '');

FILE_SCHEMA (('AUTOMOTIVE_DESIGN { 1 0 10303 214 3 1 1 }'));
ENDSEC;

DATA;
#10=MECHANICAL_DESIGN_GEOMETRIC_PRESENTATION_REPRESENTATION('',(#13),#315);
#11=SHAPE_REPRESENTATION_RELATIONSHIP('SRR','None',#324,#12);
#12=ADVANCED_BREP_SHAPE_REPRESENTATION($,(#14),#314);
#13=STYLED_ITEM('',(#333),#14);
#14=MANIFOLD_SOLID_BREP('Volumenk\X\F6rper1',#176);
#15=LINE('',#275,#19);
#16=LINE('',#280,#20);
#17=LINE('',#288,#21);
#18=LINE('',#293,#22);
#19=VECTOR('',#220,10.3240324707581);
#20=VECTOR('',#221,9.88685996664259);
#21=VECTOR('',#224,10.3240324707581);
#22=VECTOR('',#225,9.88685996664259);
#23=(
BOUNDED_CURVE()
B_SPLINE_CURVE(2,(#271,#272,#273),.UNSPECIFIED.,.F.,.F.)
B_SPLINE_CURVE_WITH_KNOTS((3,3),(0.,0.201190952882046),.UNSPECIFIED.)
CURVE()
GEOMETRIC_REPRESENTATION_ITEM()
RATIONAL_B_SPLINE_CURVE((1.,1.00022897205221,1.))
REPRESENTATION_ITEM('')
);
#24=(
BOUNDED_CURVE()
B_SPLINE_CURVE(2,(#277,#278,#279),.UNSPECIFIED.,.F.,.F.)
B_SPLINE_CURVE_WITH_KNOTS((3,3),(0.,0.201190952882046),.UNSPECIFIED.)
CURVE()
GEOMETRIC_REPRESENTATION_ITEM()
RATIONAL_B_SPLINE_CURVE((1.,1.00022897205221,1.))
REPRESENTATION_ITEM('')
);
#25=(
BOUNDED_CURVE()
B_SPLINE_CURVE(2,(#284,#285,#286),.UNSPECIFIED.,.F.,.F.)
B_SPLINE_CURVE_WITH_KNOTS((3,3),(0.,0.201190952882046),.UNSPECIFIED.)
CURVE()
GEOMETRIC_REPRESENTATION_ITEM()
RATIONAL_B_SPLINE_CURVE((1.,1.00022897205221,1.))
REPRESENTATION_ITEM('')
);
#26=(
BOUNDED_CURVE()
B_SPLINE_CURVE(2,(#290,#291,#292),.UNSPECIFIED.,.F.,.F.)
B_SPLINE_CURVE_WITH_KNOTS((3,3),(0.,0.201190952882046),.UNSPECIFIED.)
CURVE()
GEOMETRIC_REPRESENTATION_ITEM()
RATIONAL_B_SPLINE_CURVE((1.,1.00022897205221,1.))
REPRESENTATION_ITEM('')
);
#27=CYLINDRICAL_SURFACE('',#183,6.6);
#28=CYLINDRICAL_SURFACE('',#201,3.);
#29=PLANE('',#181);
#30=PLANE('',#185);
#31=PLANE('',#186);
#32=PLANE('',#193);
#33=PLANE('',#194);
#34=PLANE('',#195);
#35=PLANE('',#196);
#36=PLANE('',#197);
#37=FACE_BOUND('',#58,.T.);
#38=FACE_BOUND('',#60,.T.);
#39=FACE_BOUND('',#62,.T.);
#40=FACE_BOUND('',#66,.T.);
#41=FACE_BOUND('',#69,.T.);
#42=FACE_BOUND('',#74,.T.);
#43=FACE_BOUND('',#76,.T.);
#44=FACE_OUTER_BOUND('',#57,.T.);
#45=FACE_OUTER_BOUND('',#59,.T.);
#46=FACE_OUTER_BOUND('',#61,.T.);
#47=FACE_OUTER_BOUND('',#63,.T.);
#48=FACE_OUTER_BOUND('',#64,.T.);
#49=FACE_OUTER_BOUND('',#65,.T.);
#50=FACE_OUTER_BOUND('',#67,.T.);
#51=FACE_OUTER_BOUND('',#68,.T.);
#52=FACE_OUTER_BOUND('',#70,.T.);
#53=FACE_OUTER_BOUND('',#71,.T.);
#54=FACE_OUTER_BOUND('',#72,.T.);
#55=FACE_OUTER_BOUND('',#73,.T.);
#56=FACE_OUTER_BOUND('',#75,.T.);
#57=EDGE_LOOP('',(#122));
#58=EDGE_LOOP('',(#123));
#59=EDGE_LOOP('',(#124));
#60=EDGE_LOOP('',(#125));
#61=EDGE_LOOP('',(#126));
#62=EDGE_LOOP('',(#127));
#63=EDGE_LOOP('',(#128,#129,#130,#131));
#64=EDGE_LOOP('',(#132,#133,#134,#135));
#65=EDGE_LOOP('',(#136));
#66=EDGE_LOOP('',(#137,#138,#139,#140,#141,#142,#143,#144));
#67=EDGE_LOOP('',(#145,#146));
#68=EDGE_LOOP('',(#147));
#69=EDGE_LOOP('',(#148));
#70=EDGE_LOOP('',(#149,#150));
#71=EDGE_LOOP('',(#151,#152,#153,#154));
#72=EDGE_LOOP('',(#155));
#73=EDGE_LOOP('',(#156));
#74=EDGE_LOOP('',(#157));
#75=EDGE_LOOP('',(#158));
#76=EDGE_LOOP('',(#159));
#77=CIRCLE('',#179,6.35);
#78=CIRCLE('',#180,6.6);
#79=CIRCLE('',#182,3.);
#80=CIRCLE('',#184,6.6);
#81=CIRCLE('',#188,7.);
#82=CIRCLE('',#189,5.21621621621622);
#83=CIRCLE('',#190,5.);
#84=CIRCLE('',#191,5.21621621621622);
#85=CIRCLE('',#192,5.);
#86=CIRCLE('',#198,1.75);
#87=CIRCLE('',#200,3.);
#88=VERTEX_POINT('',#258);
#89=VERTEX_POINT('',#260);
#90=VERTEX_POINT('',#263);
#91=VERTEX_POINT('',#266);
#92=VERTEX_POINT('',#269);
#93=VERTEX_POINT('',#270);
#94=VERTEX_POINT('',#274);
#95=VERTEX_POINT('',#276);
#96=VERTEX_POINT('',#282);
#97=VERTEX_POINT('',#283);
#98=VERTEX_POINT('',#287);
#99=VERTEX_POINT('',#289);
#100=VERTEX_POINT('',#295);
#101=VERTEX_POINT('',#306);
#102=VERTEX_POINT('',#309);
#103=EDGE_CURVE('',#88,#88,#77,.T.);
#104=EDGE_CURVE('',#89,#89,#78,.T.);
#105=EDGE_CURVE('',#90,#90,#79,.T.);
#106=EDGE_CURVE('',#91,#91,#80,.T.);
#107=EDGE_CURVE('',#92,#93,#23,.T.);
#108=EDGE_CURVE('',#92,#94,#15,.T.);
#109=EDGE_CURVE('',#95,#94,#24,.T.);
#110=EDGE_CURVE('',#93,#95,#16,.T.);
#111=EDGE_CURVE('',#96,#97,#25,.T.);
#112=EDGE_CURVE('',#98,#96,#17,.T.);
#113=EDGE_CURVE('',#99,#98,#26,.T.);
#114=EDGE_CURVE('',#97,#99,#18,.T.);
#115=EDGE_CURVE('',#100,#100,#81,.T.);
#116=EDGE_CURVE('',#94,#96,#82,.T.);
#117=EDGE_CURVE('',#99,#97,#83,.T.);
#118=EDGE_CURVE('',#98,#92,#84,.T.);
#119=EDGE_CURVE('',#95,#93,#85,.T.);
#120=EDGE_CURVE('',#101,#101,#86,.T.);
#121=EDGE_CURVE('',#102,#102,#87,.T.);
#122=ORIENTED_EDGE('',*,*,#103,.T.);
#123=ORIENTED_EDGE('',*,*,#104,.T.);
#124=ORIENTED_EDGE('',*,*,#103,.F.);
#125=ORIENTED_EDGE('',*,*,#105,.T.);
#126=ORIENTED_EDGE('',*,*,#106,.F.);
#127=ORIENTED_EDGE('',*,*,#104,.F.);
#128=ORIENTED_EDGE('',*,*,#107,.F.);
#129=ORIENTED_EDGE('',*,*,#108,.T.);
#130=ORIENTED_EDGE('',*,*,#109,.F.);
#131=ORIENTED_EDGE('',*,*,#110,.F.);
#132=ORIENTED_EDGE('',*,*,#111,.F.);
#133=ORIENTED_EDGE('',*,*,#112,.F.);
#134=ORIENTED_EDGE('',*,*,#113,.F.);
#135=ORIENTED_EDGE('',*,*,#114,.F.);
#136=ORIENTED_EDGE('',*,*,#115,.T.);
#137=ORIENTED_EDGE('',*,*,#109,.T.);
#138=ORIENTED_EDGE('',*,*,#116,.T.);
#139=ORIENTED_EDGE('',*,*,#111,.T.);
#140=ORIENTED_EDGE('',*,*,#117,.F.);
#141=ORIENTED_EDGE('',*,*,#113,.T.);
#142=ORIENTED_EDGE('',*,*,#118,.T.);
#143=ORIENTED_EDGE('',*,*,#107,.T.);
#144=ORIENTED_EDGE('',*,*,#119,.F.);
#145=ORIENTED_EDGE('',*,*,#114,.T.);
#146=ORIENTED_EDGE('',*,*,#117,.T.);
#147=ORIENTED_EDGE('',*,*,#115,.F.);
#148=ORIENTED_EDGE('',*,*,#106,.T.);
#149=ORIENTED_EDGE('',*,*,#110,.T.);
#150=ORIENTED_EDGE('',*,*,#119,.T.);
#151=ORIENTED_EDGE('',*,*,#108,.F.);
#152=ORIENTED_EDGE('',*,*,#118,.F.);
#153=ORIENTED_EDGE('',*,*,#112,.T.);
#154=ORIENTED_EDGE('',*,*,#116,.F.);
#155=ORIENTED_EDGE('',*,*,#120,.F.);
#156=ORIENTED_EDGE('',*,*,#121,.F.);
#157=ORIENTED_EDGE('',*,*,#120,.T.);
#158=ORIENTED_EDGE('',*,*,#105,.F.);
#159=ORIENTED_EDGE('',*,*,#121,.T.);
#160=CONICAL_SURFACE('',#178,6.475,45.);
#161=CONICAL_SURFACE('',#187,6.,6.17017509502961);
#162=CONICAL_SURFACE('',#199,2.375,6.20344790169183);
#163=ADVANCED_FACE('',(#44,#37),#160,.T.);
#164=ADVANCED_FACE('',(#45,#38),#29,.T.);
#165=ADVANCED_FACE('',(#46,#39),#27,.T.);
#166=ADVANCED_FACE('',(#47),#30,.F.);
#167=ADVANCED_FACE('',(#48),#31,.F.);
#168=ADVANCED_FACE('',(#49,#40),#161,.T.);
#169=ADVANCED_FACE('',(#50),#32,.T.);
#170=ADVANCED_FACE('',(#51,#41),#33,.T.);
#171=ADVANCED_FACE('',(#52),#34,.T.);
#172=ADVANCED_FACE('',(#53),#35,.T.);
#173=ADVANCED_FACE('',(#54),#36,.T.);
#174=ADVANCED_FACE('',(#55,#42),#162,.F.);
#175=ADVANCED_FACE('',(#56,#43),#28,.F.);
#176=CLOSED_SHELL('',(#163,#164,#165,#166,#167,#168,#169,#170,#171,#172,
#173,#174,#175));
#177=AXIS2_PLACEMENT_3D('placement',#256,#202,#203);
#178=AXIS2_PLACEMENT_3D('',#257,#204,#205);
#179=AXIS2_PLACEMENT_3D('',#259,#206,#207);
#180=AXIS2_PLACEMENT_3D('',#261,#208,#209);
#181=AXIS2_PLACEMENT_3D('',#262,#210,#211);
#182=AXIS2_PLACEMENT_3D('',#264,#212,#213);
#183=AXIS2_PLACEMENT_3D('',#265,#214,#215);
#184=AXIS2_PLACEMENT_3D('',#267,#216,#217);
#185=AXIS2_PLACEMENT_3D('',#268,#218,#219);
#186=AXIS2_PLACEMENT_3D('',#281,#222,#223);
#187=AXIS2_PLACEMENT_3D('',#294,#226,#227);
#188=AXIS2_PLACEMENT_3D('',#296,#228,#229);
#189=AXIS2_PLACEMENT_3D('',#297,#230,#231);
#190=AXIS2_PLACEMENT_3D('',#298,#232,#233);
#191=AXIS2_PLACEMENT_3D('',#299,#234,#235);
#192=AXIS2_PLACEMENT_3D('',#300,#236,#237);
#193=AXIS2_PLACEMENT_3D('',#301,#238,#239);
#194=AXIS2_PLACEMENT_3D('',#302,#240,#241);
#195=AXIS2_PLACEMENT_3D('',#303,#242,#243);
#196=AXIS2_PLACEMENT_3D('',#304,#244,#245);
#197=AXIS2_PLACEMENT_3D('',#305,#246,#247);
#198=AXIS2_PLACEMENT_3D('',#307,#248,#249);
#199=AXIS2_PLACEMENT_3D('',#308,#250,#251);
#200=AXIS2_PLACEMENT_3D('',#310,#252,#253);
#201=AXIS2_PLACEMENT_3D('',#311,#254,#255);
#202=DIRECTION('axis',(0.,0.,1.));
#203=DIRECTION('refdir',(1.,0.,0.));
#204=DIRECTION('center_axis',(0.,1.,0.));
#205=DIRECTION('ref_axis',(0.,0.,-1.));
#206=DIRECTION('center_axis',(0.,1.,0.));
#207=DIRECTION('ref_axis',(0.,0.,-1.));
#208=DIRECTION('center_axis',(0.,-1.,0.));
#209=DIRECTION('ref_axis',(0.,0.,-1.));
#210=DIRECTION('center_axis',(0.,-1.,0.));
#211=DIRECTION('ref_axis',(0.,0.,-1.));
#212=DIRECTION('center_axis',(0.,1.,0.));
#213=DIRECTION('ref_axis',(1.,0.,0.));
#214=DIRECTION('center_axis',(0.,1.,0.));
#215=DIRECTION('ref_axis',(0.,0.,1.));
#216=DIRECTION('center_axis',(0.,1.,0.));
#217=DIRECTION('ref_axis',(1.,0.,0.));
#218=DIRECTION('center_axis',(-1.,0.,0.));
#219=DIRECTION('ref_axis',(0.,-1.,0.));
#220=DIRECTION('',(0.,0.,-1.));
#221=DIRECTION('',(0.,0.,-1.));
#222=DIRECTION('center_axis',(1.,0.,0.));
#223=DIRECTION('ref_axis',(0.,1.,0.));
#224=DIRECTION('',(0.,0.,-1.));
#225=DIRECTION('',(0.,0.,1.));
#226=DIRECTION('center_axis',(0.,-1.,0.));
#227=DIRECTION('ref_axis',(0.,0.,1.));
#228=DIRECTION('center_axis',(0.,1.,0.));
#229=DIRECTION('ref_axis',(1.,0.,0.));
#230=DIRECTION('center_axis',(0.,-1.,0.));
#231=DIRECTION('ref_axis',(0.,0.,1.));
#232=DIRECTION('center_axis',(0.,1.,0.));
#233=DIRECTION('ref_axis',(1.,0.,0.));
#234=DIRECTION('center_axis',(0.,-1.,0.));
#235=DIRECTION('ref_axis',(0.,0.,1.));
#236=DIRECTION('center_axis',(0.,1.,0.));
#237=DIRECTION('ref_axis',(1.,0.,0.));
#238=DIRECTION('center_axis',(0.,1.,0.));
#239=DIRECTION('ref_axis',(0.,0.,1.));
#240=DIRECTION('center_axis',(0.,-1.,0.));
#241=DIRECTION('ref_axis',(0.,0.,-1.));
#242=DIRECTION('center_axis',(0.,1.,0.));
#243=DIRECTION('ref_axis',(0.,0.,1.));
#244=DIRECTION('center_axis',(0.,1.,0.));
#245=DIRECTION('ref_axis',(0.,0.,1.));
#246=DIRECTION('center_axis',(0.,-1.,0.));
#247=DIRECTION('ref_axis',(0.,0.,-1.));
#248=DIRECTION('center_axis',(0.,1.,0.));
#249=DIRECTION('ref_axis',(1.,0.,0.));
#250=DIRECTION('center_axis',(0.,-1.,0.));
#251=DIRECTION('ref_axis',(0.,0.,1.));
#252=DIRECTION('center_axis',(0.,1.,0.));
#253=DIRECTION('ref_axis',(1.,0.,0.));
#254=DIRECTION('center_axis',(0.,1.,0.));
#255=DIRECTION('ref_axis',(0.,0.,1.));
#256=CARTESIAN_POINT('',(0.,0.,0.));
#257=CARTESIAN_POINT('Origin',(0.,0.125,0.));
#258=CARTESIAN_POINT('',(7.77650717458569E-16,-1.04083408558608E-16,6.35));
#259=CARTESIAN_POINT('Origin',(0.,-1.04083408558608E-16,0.));
#260=CARTESIAN_POINT('',(-8.08266887437253E-16,0.25,6.6));
#261=CARTESIAN_POINT('Origin',(0.,0.25,0.));
#262=CARTESIAN_POINT('Origin',(0.,-1.02012451475412E-16,6.6));
#263=CARTESIAN_POINT('',(0.,0.,3.));
#264=CARTESIAN_POINT('Origin',(0.,0.,0.));
#265=CARTESIAN_POINT('Origin',(0.,4.25,0.));
#266=CARTESIAN_POINT('',(0.,8.5,6.6));
#267=CARTESIAN_POINT('Origin',(0.,8.5,0.));
#268=CARTESIAN_POINT('Origin',(-0.750000000000002,27.,0.));
#269=CARTESIAN_POINT('',(-0.750000000000002,25.,5.16201623537906));
#270=CARTESIAN_POINT('',(-0.750000000000002,27.,4.9434299833213));
#271=CARTESIAN_POINT('Ctrl Pts',(-0.750000000000002,25.,5.16201623537906));
#272=CARTESIAN_POINT('Ctrl Pts',(-0.750000000000002,26.0216305114308,5.05041003036896));
#273=CARTESIAN_POINT('Ctrl Pts',(-0.750000000000002,27.,4.9434299833213));
#274=CARTESIAN_POINT('',(-0.750000000000002,25.,-5.16201623537906));
#275=CARTESIAN_POINT('',(-0.750000000000002,25.,0.));
#276=CARTESIAN_POINT('',(-0.750000000000002,27.,-4.9434299833213));
#277=CARTESIAN_POINT('Ctrl Pts',(-0.750000000000002,27.,-4.9434299833213));
#278=CARTESIAN_POINT('Ctrl Pts',(-0.750000000000002,26.0216305114308,-5.05041003036896));
#279=CARTESIAN_POINT('Ctrl Pts',(-0.750000000000002,25.,-5.16201623537906));
#280=CARTESIAN_POINT('',(-0.750000000000002,27.,0.375000000000001));
#281=CARTESIAN_POINT('Origin',(0.750000000000002,25.,0.));
#282=CARTESIAN_POINT('',(0.750000000000002,25.,-5.16201623537906));
#283=CARTESIAN_POINT('',(0.750000000000002,27.,-4.9434299833213));
#284=CARTESIAN_POINT('Ctrl Pts',(0.750000000000002,25.,-5.16201623537906));
#285=CARTESIAN_POINT('Ctrl Pts',(0.750000000000002,26.0216305114308,-5.05041003036896));
#286=CARTESIAN_POINT('Ctrl Pts',(0.750000000000002,27.,-4.9434299833213));
#287=CARTESIAN_POINT('',(0.750000000000002,25.,5.16201623537906));
#288=CARTESIAN_POINT('',(0.750000000000002,25.,0.));
#289=CARTESIAN_POINT('',(0.750000000000002,27.,4.9434299833213));
#290=CARTESIAN_POINT('Ctrl Pts',(0.750000000000002,27.,4.9434299833213));
#291=CARTESIAN_POINT('Ctrl Pts',(0.750000000000002,26.0216305114308,5.05041003036896));
#292=CARTESIAN_POINT('Ctrl Pts',(0.750000000000002,25.,5.16201623537906));
#293=CARTESIAN_POINT('',(0.750000000000002,27.,0.375000000000001));
#294=CARTESIAN_POINT('Origin',(0.,17.75,0.));
#295=CARTESIAN_POINT('',(0.,8.5,7.));
#296=CARTESIAN_POINT('Origin',(0.,8.5,0.));
#297=CARTESIAN_POINT('Origin',(0.,25.,0.));
#298=CARTESIAN_POINT('Origin',(0.,27.,0.));
#299=CARTESIAN_POINT('Origin',(0.,25.,0.));
#300=CARTESIAN_POINT('Origin',(0.,27.,0.));
#301=CARTESIAN_POINT('Origin',(0.,27.,0.750000000000003));
#302=CARTESIAN_POINT('Origin',(0.,8.5,7.));
#303=CARTESIAN_POINT('Origin',(0.,27.,0.750000000000003));
#304=CARTESIAN_POINT('Origin',(0.,25.,0.));
#305=CARTESIAN_POINT('Origin',(0.,20.,1.75));
#306=CARTESIAN_POINT('',(0.,20.,1.75));
#307=CARTESIAN_POINT('Origin',(0.,20.,0.));
#308=CARTESIAN_POINT('Origin',(0.,14.25,0.));
#309=CARTESIAN_POINT('',(0.,8.5,3.));
#310=CARTESIAN_POINT('Origin',(0.,8.5,0.));
#311=CARTESIAN_POINT('Origin',(0.,4.25,0.));
#312=UNCERTAINTY_MEASURE_WITH_UNIT(LENGTH_MEASURE(0.01),#316,
'DISTANCE_ACCURACY_VALUE',
'Maximum model space distance between geometric entities at asserted c
onnectivities');
#313=UNCERTAINTY_MEASURE_WITH_UNIT(LENGTH_MEASURE(1.E-6),#316,
'DISTANCE_ACCURACY_VALUE',
'Maximum model space distance between geometric entities at asserted c
onnectivities');
#314=(
GEOMETRIC_REPRESENTATION_CONTEXT(3)
GLOBAL_UNCERTAINTY_ASSIGNED_CONTEXT((#312))
GLOBAL_UNIT_ASSIGNED_CONTEXT((#316,#319,#317))
REPRESENTATION_CONTEXT('','3D')
);
#315=(
GEOMETRIC_REPRESENTATION_CONTEXT(3)
GLOBAL_UNCERTAINTY_ASSIGNED_CONTEXT((#313))
GLOBAL_UNIT_ASSIGNED_CONTEXT((#316,#319,#317))
REPRESENTATION_CONTEXT('','3D')
);
#316=(
LENGTH_UNIT()
NAMED_UNIT(*)
SI_UNIT(.MILLI.,.METRE.)
);
#317=(
NAMED_UNIT(*)
SI_UNIT($,.STERADIAN.)
SOLID_ANGLE_UNIT()
);
#318=DIMENSIONAL_EXPONENTS(0.,0.,0.,0.,0.,0.,0.);
#319=(
CONVERSION_BASED_UNIT('degree',#321)
NAMED_UNIT(#318)
PLANE_ANGLE_UNIT()
);
#320=(
NAMED_UNIT(*)
PLANE_ANGLE_UNIT()
SI_UNIT($,.RADIAN.)
);
#321=PLANE_ANGLE_MEASURE_WITH_UNIT(PLANE_ANGLE_MEASURE(0.01745329252),#320);
#322=SHAPE_DEFINITION_REPRESENTATION(#323,#324);
#323=PRODUCT_DEFINITION_SHAPE('',$,#326);
#324=SHAPE_REPRESENTATION('',(#177),#314);
#325=PRODUCT_DEFINITION_CONTEXT('part definition',#330,'design');
#326=PRODUCT_DEFINITION('sd_14','sd_14',#327,#325);
#327=PRODUCT_DEFINITION_FORMATION('',$,#332);
#328=PRODUCT_RELATED_PRODUCT_CATEGORY('sd_14','sd_14',(#332));
#329=APPLICATION_PROTOCOL_DEFINITION('international standard',
'automotive_design',2009,#330);
#330=APPLICATION_CONTEXT(
'Core Data for Automotive Mechanical Design Process');
#331=PRODUCT_CONTEXT('part definition',#330,'mechanical');
#332=PRODUCT('sd_14','sd_14',$,(#331));
#333=PRESENTATION_STYLE_ASSIGNMENT((#334));
#334=SURFACE_STYLE_USAGE(.BOTH.,#335);
#335=SURFACE_SIDE_STYLE($,(#336));
#336=SURFACE_STYLE_FILL_AREA(#337);
#337=FILL_AREA_STYLE($,(#338));
#338=FILL_AREA_STYLE_COLOUR($,#339);
#339=COLOUR_RGB('',0.749019607843137,0.749019607843137,0.749019607843137);
ENDSEC;
END-ISO-10303-21;
