ISO-10303-21;
HEADER;
/* Generated by software containing ST-Developer
 * from STEP Tools, Inc. (www.steptools.com) 
 */

FILE_DESCRIPTION(
/* description */ (''),
/* implementation_level */ '2;1');

FILE_NAME(
/* name */ 'H:\\cad\\neutral\\3d\\72556\\vs_m14_k_ms.stp',
/* time_stamp */ '2017-10-10T13:36:38+02:00',
/* author */ ('Hamoud'),
/* organization */ (''),
/* preprocessor_version */ 'ST-DEVELOPER v15.6',
/* originating_system */ 'Autodesk Inventor LT ',
/* authorisation */ '');

FILE_SCHEMA (('AUTOMOTIVE_DESIGN { 1 0 10303 214 3 1 1 }'));
ENDSEC;

DATA;
#10=MECHANICAL_DESIGN_GEOMETRIC_PRESENTATION_REPRESENTATION('',(#13),#453);
#11=SHAPE_REPRESENTATION_RELATIONSHIP('SRR','None',#462,#12);
#12=ADVANCED_BREP_SHAPE_REPRESENTATION($,(#14),#452);
#13=STYLED_ITEM('',(#472),#14);
#14=MANIFOLD_SOLID_BREP('Volumenk\X\F6rper1',#257);
#15=CONICAL_SURFACE('',#266,2.02072594216369,45.);
#16=CONICAL_SURFACE('',#268,2.02072594216369,45.);
#17=CONICAL_SURFACE('',#270,2.02072594216369,45.);
#18=CONICAL_SURFACE('',#272,2.02072594216369,45.);
#19=CONICAL_SURFACE('',#274,2.02072594216369,45.);
#20=CONICAL_SURFACE('',#276,2.02072594216369,45.);
#21=CONICAL_SURFACE('',#279,6.48438184410157,44.105);
#22=CONICAL_SURFACE('',#282,6.8437421914794,1.79);
#23=CONICAL_SURFACE('',#288,6.20310253885723,45.8949999999999);
#24=(
BOUNDED_CURVE()
B_SPLINE_CURVE(2,(#392,#393,#394),.UNSPECIFIED.,.F.,.F.)
B_SPLINE_CURVE_WITH_KNOTS((3,3),(0.,0.418401887011759),.UNSPECIFIED.)
CURVE()
GEOMETRIC_REPRESENTATION_ITEM()
RATIONAL_B_SPLINE_CURVE((1.,1.15470053837925,1.))
REPRESENTATION_ITEM('')
);
#25=(
BOUNDED_CURVE()
B_SPLINE_CURVE(2,(#399,#400,#401),.UNSPECIFIED.,.F.,.F.)
B_SPLINE_CURVE_WITH_KNOTS((3,3),(0.,0.418401887011759),.UNSPECIFIED.)
CURVE()
GEOMETRIC_REPRESENTATION_ITEM()
RATIONAL_B_SPLINE_CURVE((1.,1.15470053837925,1.))
REPRESENTATION_ITEM('')
);
#26=(
BOUNDED_CURVE()
B_SPLINE_CURVE(2,(#405,#406,#407),.UNSPECIFIED.,.F.,.F.)
B_SPLINE_CURVE_WITH_KNOTS((3,3),(0.,0.41840188701176),.UNSPECIFIED.)
CURVE()
GEOMETRIC_REPRESENTATION_ITEM()
RATIONAL_B_SPLINE_CURVE((1.,1.15470053837925,1.))
REPRESENTATION_ITEM('')
);
#27=(
BOUNDED_CURVE()
B_SPLINE_CURVE(2,(#412,#413,#414),.UNSPECIFIED.,.F.,.F.)
B_SPLINE_CURVE_WITH_KNOTS((3,3),(0.,0.41840188701176),.UNSPECIFIED.)
CURVE()
GEOMETRIC_REPRESENTATION_ITEM()
RATIONAL_B_SPLINE_CURVE((1.,1.15470053837925,1.))
REPRESENTATION_ITEM('')
);
#28=(
BOUNDED_CURVE()
B_SPLINE_CURVE(2,(#418,#419,#420),.UNSPECIFIED.,.F.,.F.)
B_SPLINE_CURVE_WITH_KNOTS((3,3),(0.,0.418401887011759),.UNSPECIFIED.)
CURVE()
GEOMETRIC_REPRESENTATION_ITEM()
RATIONAL_B_SPLINE_CURVE((1.,1.15470053837925,1.))
REPRESENTATION_ITEM('')
);
#29=(
BOUNDED_CURVE()
B_SPLINE_CURVE(2,(#423,#424,#425),.UNSPECIFIED.,.F.,.F.)
B_SPLINE_CURVE_WITH_KNOTS((3,3),(0.,0.418401887011759),.UNSPECIFIED.)
CURVE()
GEOMETRIC_REPRESENTATION_ITEM()
RATIONAL_B_SPLINE_CURVE((1.,1.15470053837925,1.))
REPRESENTATION_ITEM('')
);
#30=CYLINDRICAL_SURFACE('',#261,4.1);
#31=FACE_BOUND('',#82,.T.);
#32=FACE_BOUND('',#84,.T.);
#33=FACE_BOUND('',#96,.T.);
#34=FACE_BOUND('',#98,.T.);
#35=FACE_BOUND('',#100,.T.);
#36=FACE_BOUND('',#105,.T.);
#37=LINE('',#375,#49);
#38=LINE('',#377,#50);
#39=LINE('',#379,#51);
#40=LINE('',#381,#52);
#41=LINE('',#383,#53);
#42=LINE('',#384,#54);
#43=LINE('',#390,#55);
#44=LINE('',#395,#56);
#45=LINE('',#398,#57);
#46=LINE('',#404,#58);
#47=LINE('',#432,#59);
#48=LINE('',#443,#60);
#49=VECTOR('',#297,4.04145188432738);
#50=VECTOR('',#298,4.04145188432738);
#51=VECTOR('',#299,4.04145188432738);
#52=VECTOR('',#300,4.04145188432738);
#53=VECTOR('',#301,4.04145188432738);
#54=VECTOR('',#302,4.04145188432738);
#55=VECTOR('',#309,5.7);
#56=VECTOR('',#310,5.7);
#57=VECTOR('',#313,5.7);
#58=VECTOR('',#316,5.7);
#59=VECTOR('',#343,5.7);
#60=VECTOR('',#358,5.7);
#61=FACE_OUTER_BOUND('',#81,.T.);
#62=FACE_OUTER_BOUND('',#83,.T.);
#63=FACE_OUTER_BOUND('',#85,.T.);
#64=FACE_OUTER_BOUND('',#86,.T.);
#65=FACE_OUTER_BOUND('',#87,.T.);
#66=FACE_OUTER_BOUND('',#88,.T.);
#67=FACE_OUTER_BOUND('',#89,.T.);
#68=FACE_OUTER_BOUND('',#90,.T.);
#69=FACE_OUTER_BOUND('',#91,.T.);
#70=FACE_OUTER_BOUND('',#92,.T.);
#71=FACE_OUTER_BOUND('',#93,.T.);
#72=FACE_OUTER_BOUND('',#94,.T.);
#73=FACE_OUTER_BOUND('',#95,.T.);
#74=FACE_OUTER_BOUND('',#97,.T.);
#75=FACE_OUTER_BOUND('',#99,.T.);
#76=FACE_OUTER_BOUND('',#101,.T.);
#77=FACE_OUTER_BOUND('',#102,.T.);
#78=FACE_OUTER_BOUND('',#103,.T.);
#79=FACE_OUTER_BOUND('',#104,.T.);
#80=FACE_OUTER_BOUND('',#106,.T.);
#81=EDGE_LOOP('',(#167));
#82=EDGE_LOOP('',(#168,#169,#170,#171,#172,#173));
#83=EDGE_LOOP('',(#174));
#84=EDGE_LOOP('',(#175));
#85=EDGE_LOOP('',(#176,#177,#178,#179));
#86=EDGE_LOOP('',(#180,#181,#182,#183));
#87=EDGE_LOOP('',(#184,#185,#186,#187));
#88=EDGE_LOOP('',(#188,#189));
#89=EDGE_LOOP('',(#190,#191));
#90=EDGE_LOOP('',(#192,#193));
#91=EDGE_LOOP('',(#194,#195));
#92=EDGE_LOOP('',(#196,#197));
#93=EDGE_LOOP('',(#198,#199));
#94=EDGE_LOOP('',(#200,#201,#202,#203));
#95=EDGE_LOOP('',(#204));
#96=EDGE_LOOP('',(#205));
#97=EDGE_LOOP('',(#206));
#98=EDGE_LOOP('',(#207));
#99=EDGE_LOOP('',(#208));
#100=EDGE_LOOP('',(#209,#210,#211,#212,#213,#214));
#101=EDGE_LOOP('',(#215,#216,#217,#218));
#102=EDGE_LOOP('',(#219,#220,#221,#222));
#103=EDGE_LOOP('',(#223));
#104=EDGE_LOOP('',(#224));
#105=EDGE_LOOP('',(#225));
#106=EDGE_LOOP('',(#226));
#107=CIRCLE('',#260,4.1);
#108=CIRCLE('',#262,4.1);
#109=CIRCLE('',#267,4.04145188432738);
#110=CIRCLE('',#269,4.04145188432738);
#111=CIRCLE('',#271,4.04145188432738);
#112=CIRCLE('',#273,4.04145188432738);
#113=CIRCLE('',#275,4.04145188432738);
#114=CIRCLE('',#277,4.04145188432738);
#115=CIRCLE('',#280,6.96876368820314);
#116=CIRCLE('',#281,6.);
#117=CIRCLE('',#283,6.71872069475566);
#118=CIRCLE('',#289,5.6874843829588);
#119=VERTEX_POINT('',#371);
#120=VERTEX_POINT('',#373);
#121=VERTEX_POINT('',#374);
#122=VERTEX_POINT('',#376);
#123=VERTEX_POINT('',#378);
#124=VERTEX_POINT('',#380);
#125=VERTEX_POINT('',#382);
#126=VERTEX_POINT('',#386);
#127=VERTEX_POINT('',#389);
#128=VERTEX_POINT('',#391);
#129=VERTEX_POINT('',#397);
#130=VERTEX_POINT('',#403);
#131=VERTEX_POINT('',#411);
#132=VERTEX_POINT('',#417);
#133=VERTEX_POINT('',#434);
#134=VERTEX_POINT('',#436);
#135=VERTEX_POINT('',#439);
#136=VERTEX_POINT('',#447);
#137=EDGE_CURVE('',#119,#119,#107,.T.);
#138=EDGE_CURVE('',#120,#121,#37,.T.);
#139=EDGE_CURVE('',#122,#120,#38,.T.);
#140=EDGE_CURVE('',#123,#122,#39,.T.);
#141=EDGE_CURVE('',#124,#123,#40,.T.);
#142=EDGE_CURVE('',#125,#124,#41,.T.);
#143=EDGE_CURVE('',#121,#125,#42,.T.);
#144=EDGE_CURVE('',#126,#126,#108,.T.);
#145=EDGE_CURVE('',#127,#123,#43,.T.);
#146=EDGE_CURVE('',#127,#128,#24,.T.);
#147=EDGE_CURVE('',#128,#124,#44,.T.);
#148=EDGE_CURVE('',#129,#122,#45,.T.);
#149=EDGE_CURVE('',#129,#127,#25,.T.);
#150=EDGE_CURVE('',#130,#120,#46,.T.);
#151=EDGE_CURVE('',#130,#129,#26,.T.);
#152=EDGE_CURVE('',#128,#127,#109,.T.);
#153=EDGE_CURVE('',#128,#131,#27,.T.);
#154=EDGE_CURVE('',#131,#128,#110,.T.);
#155=EDGE_CURVE('',#131,#132,#28,.T.);
#156=EDGE_CURVE('',#132,#131,#111,.T.);
#157=EDGE_CURVE('',#132,#130,#29,.T.);
#158=EDGE_CURVE('',#130,#132,#112,.T.);
#159=EDGE_CURVE('',#129,#130,#113,.T.);
#160=EDGE_CURVE('',#127,#129,#114,.T.);
#161=EDGE_CURVE('',#132,#121,#47,.T.);
#162=EDGE_CURVE('',#133,#133,#115,.T.);
#163=EDGE_CURVE('',#134,#134,#116,.T.);
#164=EDGE_CURVE('',#135,#135,#117,.T.);
#165=EDGE_CURVE('',#131,#125,#48,.T.);
#166=EDGE_CURVE('',#136,#136,#118,.T.);
#167=ORIENTED_EDGE('',*,*,#137,.T.);
#168=ORIENTED_EDGE('',*,*,#138,.F.);
#169=ORIENTED_EDGE('',*,*,#139,.F.);
#170=ORIENTED_EDGE('',*,*,#140,.F.);
#171=ORIENTED_EDGE('',*,*,#141,.F.);
#172=ORIENTED_EDGE('',*,*,#142,.F.);
#173=ORIENTED_EDGE('',*,*,#143,.F.);
#174=ORIENTED_EDGE('',*,*,#144,.T.);
#175=ORIENTED_EDGE('',*,*,#137,.F.);
#176=ORIENTED_EDGE('',*,*,#141,.T.);
#177=ORIENTED_EDGE('',*,*,#145,.F.);
#178=ORIENTED_EDGE('',*,*,#146,.T.);
#179=ORIENTED_EDGE('',*,*,#147,.T.);
#180=ORIENTED_EDGE('',*,*,#140,.T.);
#181=ORIENTED_EDGE('',*,*,#148,.F.);
#182=ORIENTED_EDGE('',*,*,#149,.T.);
#183=ORIENTED_EDGE('',*,*,#145,.T.);
#184=ORIENTED_EDGE('',*,*,#139,.T.);
#185=ORIENTED_EDGE('',*,*,#150,.F.);
#186=ORIENTED_EDGE('',*,*,#151,.T.);
#187=ORIENTED_EDGE('',*,*,#148,.T.);
#188=ORIENTED_EDGE('',*,*,#146,.F.);
#189=ORIENTED_EDGE('',*,*,#152,.F.);
#190=ORIENTED_EDGE('',*,*,#153,.F.);
#191=ORIENTED_EDGE('',*,*,#154,.F.);
#192=ORIENTED_EDGE('',*,*,#155,.F.);
#193=ORIENTED_EDGE('',*,*,#156,.F.);
#194=ORIENTED_EDGE('',*,*,#157,.F.);
#195=ORIENTED_EDGE('',*,*,#158,.F.);
#196=ORIENTED_EDGE('',*,*,#151,.F.);
#197=ORIENTED_EDGE('',*,*,#159,.F.);
#198=ORIENTED_EDGE('',*,*,#149,.F.);
#199=ORIENTED_EDGE('',*,*,#160,.F.);
#200=ORIENTED_EDGE('',*,*,#138,.T.);
#201=ORIENTED_EDGE('',*,*,#161,.F.);
#202=ORIENTED_EDGE('',*,*,#157,.T.);
#203=ORIENTED_EDGE('',*,*,#150,.T.);
#204=ORIENTED_EDGE('',*,*,#162,.T.);
#205=ORIENTED_EDGE('',*,*,#163,.T.);
#206=ORIENTED_EDGE('',*,*,#164,.F.);
#207=ORIENTED_EDGE('',*,*,#162,.F.);
#208=ORIENTED_EDGE('',*,*,#163,.F.);
#209=ORIENTED_EDGE('',*,*,#160,.T.);
#210=ORIENTED_EDGE('',*,*,#159,.T.);
#211=ORIENTED_EDGE('',*,*,#158,.T.);
#212=ORIENTED_EDGE('',*,*,#156,.T.);
#213=ORIENTED_EDGE('',*,*,#154,.T.);
#214=ORIENTED_EDGE('',*,*,#152,.T.);
#215=ORIENTED_EDGE('',*,*,#142,.T.);
#216=ORIENTED_EDGE('',*,*,#147,.F.);
#217=ORIENTED_EDGE('',*,*,#153,.T.);
#218=ORIENTED_EDGE('',*,*,#165,.T.);
#219=ORIENTED_EDGE('',*,*,#143,.T.);
#220=ORIENTED_EDGE('',*,*,#165,.F.);
#221=ORIENTED_EDGE('',*,*,#155,.T.);
#222=ORIENTED_EDGE('',*,*,#161,.T.);
#223=ORIENTED_EDGE('',*,*,#144,.F.);
#224=ORIENTED_EDGE('',*,*,#166,.T.);
#225=ORIENTED_EDGE('',*,*,#164,.T.);
#226=ORIENTED_EDGE('',*,*,#166,.F.);
#227=PLANE('',#259);
#228=PLANE('',#263);
#229=PLANE('',#264);
#230=PLANE('',#265);
#231=PLANE('',#278);
#232=PLANE('',#284);
#233=PLANE('',#285);
#234=PLANE('',#286);
#235=PLANE('',#287);
#236=PLANE('',#290);
#237=ADVANCED_FACE('',(#61,#31),#227,.F.);
#238=ADVANCED_FACE('',(#62,#32),#30,.F.);
#239=ADVANCED_FACE('',(#63),#228,.F.);
#240=ADVANCED_FACE('',(#64),#229,.F.);
#241=ADVANCED_FACE('',(#65),#230,.F.);
#242=ADVANCED_FACE('',(#66),#15,.F.);
#243=ADVANCED_FACE('',(#67),#16,.F.);
#244=ADVANCED_FACE('',(#68),#17,.F.);
#245=ADVANCED_FACE('',(#69),#18,.F.);
#246=ADVANCED_FACE('',(#70),#19,.F.);
#247=ADVANCED_FACE('',(#71),#20,.F.);
#248=ADVANCED_FACE('',(#72),#231,.F.);
#249=ADVANCED_FACE('',(#73,#33),#21,.T.);
#250=ADVANCED_FACE('',(#74,#34),#22,.T.);
#251=ADVANCED_FACE('',(#75,#35),#232,.T.);
#252=ADVANCED_FACE('',(#76),#233,.F.);
#253=ADVANCED_FACE('',(#77),#234,.F.);
#254=ADVANCED_FACE('',(#78),#235,.F.);
#255=ADVANCED_FACE('',(#79,#36),#23,.T.);
#256=ADVANCED_FACE('',(#80),#236,.T.);
#257=CLOSED_SHELL('',(#237,#238,#239,#240,#241,#242,#243,#244,#245,#246,
#247,#248,#249,#250,#251,#252,#253,#254,#255,#256));
#258=AXIS2_PLACEMENT_3D('placement',#369,#291,#292);
#259=AXIS2_PLACEMENT_3D('',#370,#293,#294);
#260=AXIS2_PLACEMENT_3D('',#372,#295,#296);
#261=AXIS2_PLACEMENT_3D('',#385,#303,#304);
#262=AXIS2_PLACEMENT_3D('',#387,#305,#306);
#263=AXIS2_PLACEMENT_3D('',#388,#307,#308);
#264=AXIS2_PLACEMENT_3D('',#396,#311,#312);
#265=AXIS2_PLACEMENT_3D('',#402,#314,#315);
#266=AXIS2_PLACEMENT_3D('',#408,#317,#318);
#267=AXIS2_PLACEMENT_3D('',#409,#319,#320);
#268=AXIS2_PLACEMENT_3D('',#410,#321,#322);
#269=AXIS2_PLACEMENT_3D('',#415,#323,#324);
#270=AXIS2_PLACEMENT_3D('',#416,#325,#326);
#271=AXIS2_PLACEMENT_3D('',#421,#327,#328);
#272=AXIS2_PLACEMENT_3D('',#422,#329,#330);
#273=AXIS2_PLACEMENT_3D('',#426,#331,#332);
#274=AXIS2_PLACEMENT_3D('',#427,#333,#334);
#275=AXIS2_PLACEMENT_3D('',#428,#335,#336);
#276=AXIS2_PLACEMENT_3D('',#429,#337,#338);
#277=AXIS2_PLACEMENT_3D('',#430,#339,#340);
#278=AXIS2_PLACEMENT_3D('',#431,#341,#342);
#279=AXIS2_PLACEMENT_3D('',#433,#344,#345);
#280=AXIS2_PLACEMENT_3D('',#435,#346,#347);
#281=AXIS2_PLACEMENT_3D('',#437,#348,#349);
#282=AXIS2_PLACEMENT_3D('',#438,#350,#351);
#283=AXIS2_PLACEMENT_3D('',#440,#352,#353);
#284=AXIS2_PLACEMENT_3D('',#441,#354,#355);
#285=AXIS2_PLACEMENT_3D('',#442,#356,#357);
#286=AXIS2_PLACEMENT_3D('',#444,#359,#360);
#287=AXIS2_PLACEMENT_3D('',#445,#361,#362);
#288=AXIS2_PLACEMENT_3D('',#446,#363,#364);
#289=AXIS2_PLACEMENT_3D('',#448,#365,#366);
#290=AXIS2_PLACEMENT_3D('',#449,#367,#368);
#291=DIRECTION('axis',(0.,0.,1.));
#292=DIRECTION('refdir',(1.,0.,0.));
#293=DIRECTION('center_axis',(-1.,0.,0.));
#294=DIRECTION('ref_axis',(0.,0.,1.));
#295=DIRECTION('center_axis',(1.,0.,0.));
#296=DIRECTION('ref_axis',(0.,0.,1.));
#297=DIRECTION('',(0.,0.866025403784439,-0.5));
#298=DIRECTION('',(0.,2.74708955197652E-16,-1.));
#299=DIRECTION('',(0.,-0.866025403784439,-0.5));
#300=DIRECTION('',(0.,-0.866025403784439,0.5));
#301=DIRECTION('',(0.,-2.74708955197652E-16,1.));
#302=DIRECTION('',(0.,0.866025403784439,0.5));
#303=DIRECTION('center_axis',(1.,0.,0.));
#304=DIRECTION('ref_axis',(0.,0.,1.));
#305=DIRECTION('center_axis',(1.,0.,0.));
#306=DIRECTION('ref_axis',(0.,0.,1.));
#307=DIRECTION('center_axis',(0.,0.5,0.866025403784439));
#308=DIRECTION('ref_axis',(1.,0.,0.));
#309=DIRECTION('',(1.,0.,0.));
#310=DIRECTION('',(1.,0.,0.));
#311=DIRECTION('center_axis',(0.,-0.5,0.866025403784439));
#312=DIRECTION('ref_axis',(1.,0.,0.));
#313=DIRECTION('',(1.,0.,0.));
#314=DIRECTION('center_axis',(0.,-1.,-2.74708955197652E-16));
#315=DIRECTION('ref_axis',(0.,4.44089209850063E-16,-1.));
#316=DIRECTION('',(1.,0.,0.));
#317=DIRECTION('center_axis',(-1.,0.,0.));
#318=DIRECTION('ref_axis',(0.,0.,-1.));
#319=DIRECTION('center_axis',(1.,0.,0.));
#320=DIRECTION('ref_axis',(0.,0.,-1.));
#321=DIRECTION('center_axis',(-1.,0.,0.));
#322=DIRECTION('ref_axis',(0.,0.,-1.));
#323=DIRECTION('center_axis',(1.,0.,0.));
#324=DIRECTION('ref_axis',(0.,0.,-1.));
#325=DIRECTION('center_axis',(-1.,0.,0.));
#326=DIRECTION('ref_axis',(0.,0.,-1.));
#327=DIRECTION('center_axis',(1.,0.,0.));
#328=DIRECTION('ref_axis',(0.,0.,-1.));
#329=DIRECTION('center_axis',(-1.,0.,0.));
#330=DIRECTION('ref_axis',(0.,0.,-1.));
#331=DIRECTION('center_axis',(1.,0.,0.));
#332=DIRECTION('ref_axis',(0.,0.,-1.));
#333=DIRECTION('center_axis',(-1.,0.,0.));
#334=DIRECTION('ref_axis',(0.,0.,-1.));
#335=DIRECTION('center_axis',(1.,0.,0.));
#336=DIRECTION('ref_axis',(0.,0.,-1.));
#337=DIRECTION('center_axis',(-1.,0.,0.));
#338=DIRECTION('ref_axis',(0.,0.,-1.));
#339=DIRECTION('center_axis',(1.,0.,0.));
#340=DIRECTION('ref_axis',(0.,0.,-1.));
#341=DIRECTION('center_axis',(0.,-0.5,-0.866025403784439));
#342=DIRECTION('ref_axis',(-1.,0.,0.));
#343=DIRECTION('',(1.,0.,0.));
#344=DIRECTION('center_axis',(1.,-4.26907933937128E-16,0.));
#345=DIRECTION('ref_axis',(-1.40461693370222E-32,-3.29021042253359E-17,
-1.));
#346=DIRECTION('center_axis',(-1.,0.,0.));
#347=DIRECTION('ref_axis',(0.,-6.12303176911189E-17,-1.));
#348=DIRECTION('center_axis',(1.,0.,0.));
#349=DIRECTION('ref_axis',(0.,0.,-1.));
#350=DIRECTION('center_axis',(-1.,0.,0.));
#351=DIRECTION('ref_axis',(0.,0.,1.));
#352=DIRECTION('center_axis',(1.,0.,0.));
#353=DIRECTION('ref_axis',(0.,-6.12303176911189E-17,-1.));
#354=DIRECTION('center_axis',(-1.,0.,0.));
#355=DIRECTION('ref_axis',(0.,0.,1.));
#356=DIRECTION('center_axis',(0.,1.,2.74708955197652E-16));
#357=DIRECTION('ref_axis',(0.,-4.44089209850063E-16,1.));
#358=DIRECTION('',(1.,0.,0.));
#359=DIRECTION('center_axis',(0.,0.5,-0.866025403784438));
#360=DIRECTION('ref_axis',(-1.,0.,0.));
#361=DIRECTION('center_axis',(1.,0.,0.));
#362=DIRECTION('ref_axis',(0.,0.,-1.));
#363=DIRECTION('center_axis',(-1.,-4.11590247399869E-16,0.));
#364=DIRECTION('ref_axis',(1.36483207347022E-32,-3.31599711628798E-17,-1.));
#365=DIRECTION('center_axis',(-1.,0.,0.));
#366=DIRECTION('ref_axis',(0.,0.,-1.));
#367=DIRECTION('center_axis',(1.,0.,0.));
#368=DIRECTION('ref_axis',(0.,0.,-1.));
#369=CARTESIAN_POINT('',(0.,0.,0.));
#370=CARTESIAN_POINT('Origin',(5.7,0.,2.05));
#371=CARTESIAN_POINT('',(5.7,0.,4.1));
#372=CARTESIAN_POINT('Origin',(5.7,0.,0.));
#373=CARTESIAN_POINT('',(5.7,-3.5,-2.02072594216369));
#374=CARTESIAN_POINT('',(5.7,1.34151948808873E-15,-4.04145188432738));
#375=CARTESIAN_POINT('',(5.7,-1.31883801943952,-3.28002039878646));
#376=CARTESIAN_POINT('',(5.7,-3.5,2.02072594216369));
#377=CARTESIAN_POINT('',(5.7,-3.5,0.0146370289181533));
#378=CARTESIAN_POINT('',(5.7,-6.88136785841429E-16,4.04145188432738));
#379=CARTESIAN_POINT('',(5.7,-2.18116198056048,2.78215742770461));
#380=CARTESIAN_POINT('',(5.7,3.5,2.02072594216369));
#381=CARTESIAN_POINT('',(5.7,0.431161980560475,3.79252039878646));
#382=CARTESIAN_POINT('',(5.7,3.5,-2.02072594216369));
#383=CARTESIAN_POINT('',(5.7,3.5,2.03536297108185));
#384=CARTESIAN_POINT('',(5.7,3.06883801943953,-2.26965742770461));
#385=CARTESIAN_POINT('Origin',(6.35,0.,0.));
#386=CARTESIAN_POINT('',(7.,0.,4.1));
#387=CARTESIAN_POINT('Origin',(7.,0.,0.));
#388=CARTESIAN_POINT('Origin',(0.,-6.88136785841429E-16,4.04145188432738));
#389=CARTESIAN_POINT('',(0.,-6.88136785841429E-16,4.04145188432738));
#390=CARTESIAN_POINT('',(0.,-6.88136785841429E-16,4.04145188432738));
#391=CARTESIAN_POINT('',(0.,3.5,2.02072594216369));
#392=CARTESIAN_POINT('Ctrl Pts',(2.77555756156289E-16,-3.05311331771918E-15,
4.04145188432738));
#393=CARTESIAN_POINT('Ctrl Pts',(1.01036297108185,1.75,3.03108891324554));
#394=CARTESIAN_POINT('Ctrl Pts',(0.,3.5,2.02072594216369));
#395=CARTESIAN_POINT('',(0.,3.5,2.02072594216369));
#396=CARTESIAN_POINT('Origin',(0.,-3.5,2.02072594216369));
#397=CARTESIAN_POINT('',(0.,-3.5,2.02072594216369));
#398=CARTESIAN_POINT('',(0.,-3.5,2.02072594216369));
#399=CARTESIAN_POINT('Ctrl Pts',(0.,-3.5,2.02072594216369));
#400=CARTESIAN_POINT('Ctrl Pts',(1.01036297108185,-1.75,3.03108891324553));
#401=CARTESIAN_POINT('Ctrl Pts',(-5.55111512312578E-16,1.94289029309402E-15,
4.04145188432738));
#402=CARTESIAN_POINT('Origin',(0.,-3.5,-2.02072594216369));
#403=CARTESIAN_POINT('',(0.,-3.5,-2.02072594216369));
#404=CARTESIAN_POINT('',(0.,-3.5,-2.02072594216369));
#405=CARTESIAN_POINT('Ctrl Pts',(-8.32667268468867E-16,-3.5,-2.0207259421637));
#406=CARTESIAN_POINT('Ctrl Pts',(1.01036297108185,-3.5,-2.77555756156289E-16));
#407=CARTESIAN_POINT('Ctrl Pts',(0.,-3.5,2.02072594216369));
#408=CARTESIAN_POINT('Origin',(2.02072594216369,0.,0.));
#409=CARTESIAN_POINT('Origin',(0.,0.,0.));
#410=CARTESIAN_POINT('Origin',(2.02072594216369,0.,0.));
#411=CARTESIAN_POINT('',(0.,3.5,-2.02072594216369));
#412=CARTESIAN_POINT('Ctrl Pts',(-8.32667268468867E-16,3.5,2.0207259421637));
#413=CARTESIAN_POINT('Ctrl Pts',(1.01036297108185,3.5,2.77555756156289E-16));
#414=CARTESIAN_POINT('Ctrl Pts',(0.,3.5,-2.02072594216369));
#415=CARTESIAN_POINT('Origin',(0.,0.,0.));
#416=CARTESIAN_POINT('Origin',(2.02072594216369,0.,0.));
#417=CARTESIAN_POINT('',(0.,1.34151948808873E-15,-4.04145188432738));
#418=CARTESIAN_POINT('Ctrl Pts',(-1.11022302462516E-15,3.50000000000001,
-2.02072594216369));
#419=CARTESIAN_POINT('Ctrl Pts',(1.01036297108185,1.75,-3.03108891324554));
#420=CARTESIAN_POINT('Ctrl Pts',(-8.32667268468867E-16,-1.94289029309402E-15,
-4.04145188432738));
#421=CARTESIAN_POINT('Origin',(0.,0.,0.));
#422=CARTESIAN_POINT('Origin',(2.02072594216369,0.,0.));
#423=CARTESIAN_POINT('Ctrl Pts',(-8.32667268468867E-16,3.88578058618805E-15,
-4.04145188432738));
#424=CARTESIAN_POINT('Ctrl Pts',(1.01036297108185,-1.75,-3.03108891324554));
#425=CARTESIAN_POINT('Ctrl Pts',(0.,-3.5,-2.02072594216369));
#426=CARTESIAN_POINT('Origin',(0.,0.,0.));
#427=CARTESIAN_POINT('Origin',(2.02072594216369,0.,0.));
#428=CARTESIAN_POINT('Origin',(0.,0.,0.));
#429=CARTESIAN_POINT('Origin',(2.02072594216369,0.,0.));
#430=CARTESIAN_POINT('Origin',(0.,0.,0.));
#431=CARTESIAN_POINT('Origin',(0.,1.34151948808873E-15,-4.04145188432738));
#432=CARTESIAN_POINT('',(0.,1.34151948808873E-15,-4.04145188432738));
#433=CARTESIAN_POINT('Origin',(0.499756013677006,-2.13349807271506E-16,
0.));
#434=CARTESIAN_POINT('',(0.999512027354013,8.53399229086023E-16,6.96876368820314));
#435=CARTESIAN_POINT('Origin',(0.999512027354013,-4.26699614543011E-16,
0.));
#436=CARTESIAN_POINT('',(0.,-7.34763812293426E-16,6.));
#437=CARTESIAN_POINT('Origin',(0.,0.,0.));
#438=CARTESIAN_POINT('Origin',(5.,0.,0.));
#439=CARTESIAN_POINT('',(9.00048797264598,-8.22778805235568E-16,6.71872069475566));
#440=CARTESIAN_POINT('Origin',(9.00048797264598,-4.11389402617784E-16,0.));
#441=CARTESIAN_POINT('Origin',(0.,0.,3.5));
#442=CARTESIAN_POINT('Origin',(0.,3.5,2.02072594216369));
#443=CARTESIAN_POINT('',(0.,3.5,-2.02072594216369));
#444=CARTESIAN_POINT('Origin',(0.,3.5,-2.02072594216369));
#445=CARTESIAN_POINT('Origin',(7.,-1.38777878078145E-16,1.15648231731787E-16));
#446=CARTESIAN_POINT('Origin',(9.50024398632299,-2.05694701308892E-16,0.));
#447=CARTESIAN_POINT('',(10.,6.96492951263689E-16,5.6874843829588));
#448=CARTESIAN_POINT('Origin',(10.,0.,0.));
#449=CARTESIAN_POINT('Origin',(10.,0.,3.3437421914794));
#450=UNCERTAINTY_MEASURE_WITH_UNIT(LENGTH_MEASURE(0.01),#454,
'DISTANCE_ACCURACY_VALUE',
'Maximum model space distance between geometric entities at asserted c
onnectivities');
#451=UNCERTAINTY_MEASURE_WITH_UNIT(LENGTH_MEASURE(1.E-6),#454,
'DISTANCE_ACCURACY_VALUE',
'Maximum model space distance between geometric entities at asserted c
onnectivities');
#452=(
GEOMETRIC_REPRESENTATION_CONTEXT(3)
GLOBAL_UNCERTAINTY_ASSIGNED_CONTEXT((#450))
GLOBAL_UNIT_ASSIGNED_CONTEXT((#454,#457,#455))
REPRESENTATION_CONTEXT('','3D')
);
#453=(
GEOMETRIC_REPRESENTATION_CONTEXT(3)
GLOBAL_UNCERTAINTY_ASSIGNED_CONTEXT((#451))
GLOBAL_UNIT_ASSIGNED_CONTEXT((#454,#457,#455))
REPRESENTATION_CONTEXT('','3D')
);
#454=(
LENGTH_UNIT()
NAMED_UNIT(*)
SI_UNIT(.MILLI.,.METRE.)
);
#455=(
NAMED_UNIT(*)
SI_UNIT($,.STERADIAN.)
SOLID_ANGLE_UNIT()
);
#456=DIMENSIONAL_EXPONENTS(0.,0.,0.,0.,0.,0.,0.);
#457=(
CONVERSION_BASED_UNIT('degree',#459)
NAMED_UNIT(#456)
PLANE_ANGLE_UNIT()
);
#458=(
NAMED_UNIT(*)
PLANE_ANGLE_UNIT()
SI_UNIT($,.RADIAN.)
);
#459=PLANE_ANGLE_MEASURE_WITH_UNIT(PLANE_ANGLE_MEASURE(0.01745329252),#458);
#460=SHAPE_DEFINITION_REPRESENTATION(#461,#462);
#461=PRODUCT_DEFINITION_SHAPE('',$,#464);
#462=SHAPE_REPRESENTATION('',(#258),#452);
#463=PRODUCT_DEFINITION_CONTEXT('part definition',#468,'design');
#464=PRODUCT_DEFINITION('vs_m14_k_ms','vs_m14_k_ms',#465,#463);
#465=PRODUCT_DEFINITION_FORMATION('',$,#470);
#466=PRODUCT_RELATED_PRODUCT_CATEGORY('vs_m14_k_ms','vs_m14_k_ms',(#470));
#467=APPLICATION_PROTOCOL_DEFINITION('international standard',
'automotive_design',2009,#468);
#468=APPLICATION_CONTEXT(
'Core Data for Automotive Mechanical Design Process');
#469=PRODUCT_CONTEXT('part definition',#468,'mechanical');
#470=PRODUCT('vs_m14_k_ms','vs_m14_k_ms',$,(#469));
#471=PRESENTATION_STYLE_ASSIGNMENT((#473));
#472=PRESENTATION_STYLE_ASSIGNMENT((#474));
#473=SURFACE_STYLE_USAGE(.BOTH.,#475);
#474=SURFACE_STYLE_USAGE(.BOTH.,#476);
#475=SURFACE_SIDE_STYLE($,(#477));
#476=SURFACE_SIDE_STYLE($,(#478));
#477=SURFACE_STYLE_FILL_AREA(#479);
#478=SURFACE_STYLE_FILL_AREA(#480);
#479=FILL_AREA_STYLE($,(#481));
#480=FILL_AREA_STYLE($,(#482));
#481=FILL_AREA_STYLE_COLOUR($,#483);
#482=FILL_AREA_STYLE_COLOUR($,#484);
#483=COLOUR_RGB('',0.749019607843137,0.749019607843137,0.749019607843137);
#484=COLOUR_RGB('',0.780392156862745,0.568627450980392,0.113725490196078);
ENDSEC;
END-ISO-10303-21;
