ISO-10303-21;
HEADER;
/* Generated by software containing ST-Developer
 * from STEP Tools, Inc. (www.steptools.com) 
 */

FILE_DESCRIPTION(
/* description */ (''),
/* implementation_level */ '2;1');

FILE_NAME(
/* name */ 'H:\\cad\\neutral\\3d\\72644\\u_38-la.stp',
/* time_stamp */ '2018-08-21T10:17:17+02:00',
/* author */ ('leitheu\X\DFer'),
/* organization */ (''),
/* preprocessor_version */ 'ST-DEVELOPER v15.6',
/* originating_system */ 'Autodesk Inventor LT ',
/* authorisation */ '');

FILE_SCHEMA (('AUTOMOTIVE_DESIGN { 1 0 10303 214 3 1 1 }'));
ENDSEC;

DATA;
#10=MECHANICAL_DESIGN_GEOMETRIC_PRESENTATION_REPRESENTATION('',(#16,#18,
#17),#251);
#11=SHAPE_REPRESENTATION_RELATIONSHIP('SRR','None',#260,#12);
#12=ADVANCED_BREP_SHAPE_REPRESENTATION($,(#13),#250);
#13=MANIFOLD_SOLID_BREP('Volumenk\X\F6rper1',#140);
#14=SPHERICAL_SURFACE('',#153,9.22500000000001);
#15=SPHERICAL_SURFACE('',#154,4.85);
#16=STYLED_ITEM('',(#270),#132);
#17=STYLED_ITEM('',(#270),#133);
#18=STYLED_ITEM('',(#269),#13);
#19=CYLINDRICAL_SURFACE('',#147,9.25);
#20=CYLINDRICAL_SURFACE('',#151,9.225);
#21=CYLINDRICAL_SURFACE('',#156,4.85);
#22=CYLINDRICAL_SURFACE('',#160,7.15);
#23=CYLINDRICAL_SURFACE('',#164,8.331);
#24=PLANE('',#145);
#25=PLANE('',#149);
#26=PLANE('',#158);
#27=PLANE('',#162);
#28=FACE_BOUND('',#51,.T.);
#29=FACE_BOUND('',#53,.T.);
#30=FACE_BOUND('',#55,.T.);
#31=FACE_BOUND('',#57,.T.);
#32=FACE_BOUND('',#59,.T.);
#33=FACE_BOUND('',#63,.T.);
#34=FACE_BOUND('',#65,.T.);
#35=FACE_BOUND('',#67,.T.);
#36=FACE_BOUND('',#69,.T.);
#37=FACE_BOUND('',#71,.T.);
#38=FACE_OUTER_BOUND('',#50,.T.);
#39=FACE_OUTER_BOUND('',#52,.T.);
#40=FACE_OUTER_BOUND('',#54,.T.);
#41=FACE_OUTER_BOUND('',#56,.T.);
#42=FACE_OUTER_BOUND('',#58,.T.);
#43=FACE_OUTER_BOUND('',#60,.T.);
#44=FACE_OUTER_BOUND('',#61,.T.);
#45=FACE_OUTER_BOUND('',#62,.T.);
#46=FACE_OUTER_BOUND('',#64,.T.);
#47=FACE_OUTER_BOUND('',#66,.T.);
#48=FACE_OUTER_BOUND('',#68,.T.);
#49=FACE_OUTER_BOUND('',#70,.T.);
#50=EDGE_LOOP('',(#105));
#51=EDGE_LOOP('',(#106));
#52=EDGE_LOOP('',(#107));
#53=EDGE_LOOP('',(#108));
#54=EDGE_LOOP('',(#109));
#55=EDGE_LOOP('',(#110));
#56=EDGE_LOOP('',(#111));
#57=EDGE_LOOP('',(#112));
#58=EDGE_LOOP('',(#113));
#59=EDGE_LOOP('',(#114));
#60=EDGE_LOOP('',(#115));
#61=EDGE_LOOP('',(#116));
#62=EDGE_LOOP('',(#117));
#63=EDGE_LOOP('',(#118));
#64=EDGE_LOOP('',(#119));
#65=EDGE_LOOP('',(#120));
#66=EDGE_LOOP('',(#121));
#67=EDGE_LOOP('',(#122));
#68=EDGE_LOOP('',(#123));
#69=EDGE_LOOP('',(#124));
#70=EDGE_LOOP('',(#125));
#71=EDGE_LOOP('',(#126));
#72=CIRCLE('',#143,8.75);
#73=CIRCLE('',#144,9.25);
#74=CIRCLE('',#146,8.331);
#75=CIRCLE('',#148,9.25);
#76=CIRCLE('',#150,9.225);
#77=CIRCLE('',#152,9.22500000000001);
#78=CIRCLE('',#155,4.84999999999999);
#79=CIRCLE('',#157,4.85);
#80=CIRCLE('',#159,7.15);
#81=CIRCLE('',#161,7.15);
#82=CIRCLE('',#163,8.331);
#83=VERTEX_POINT('',#215);
#84=VERTEX_POINT('',#217);
#85=VERTEX_POINT('',#220);
#86=VERTEX_POINT('',#223);
#87=VERTEX_POINT('',#226);
#88=VERTEX_POINT('',#229);
#89=VERTEX_POINT('',#233);
#90=VERTEX_POINT('',#236);
#91=VERTEX_POINT('',#239);
#92=VERTEX_POINT('',#242);
#93=VERTEX_POINT('',#245);
#94=EDGE_CURVE('',#83,#83,#72,.T.);
#95=EDGE_CURVE('',#84,#84,#73,.T.);
#96=EDGE_CURVE('',#85,#85,#74,.T.);
#97=EDGE_CURVE('',#86,#86,#75,.T.);
#98=EDGE_CURVE('',#87,#87,#76,.T.);
#99=EDGE_CURVE('',#88,#88,#77,.T.);
#100=EDGE_CURVE('',#89,#89,#78,.T.);
#101=EDGE_CURVE('',#90,#90,#79,.T.);
#102=EDGE_CURVE('',#91,#91,#80,.T.);
#103=EDGE_CURVE('',#92,#92,#81,.T.);
#104=EDGE_CURVE('',#93,#93,#82,.T.);
#105=ORIENTED_EDGE('',*,*,#94,.T.);
#106=ORIENTED_EDGE('',*,*,#95,.T.);
#107=ORIENTED_EDGE('',*,*,#94,.F.);
#108=ORIENTED_EDGE('',*,*,#96,.T.);
#109=ORIENTED_EDGE('',*,*,#97,.F.);
#110=ORIENTED_EDGE('',*,*,#95,.F.);
#111=ORIENTED_EDGE('',*,*,#97,.T.);
#112=ORIENTED_EDGE('',*,*,#98,.F.);
#113=ORIENTED_EDGE('',*,*,#98,.T.);
#114=ORIENTED_EDGE('',*,*,#99,.F.);
#115=ORIENTED_EDGE('',*,*,#99,.T.);
#116=ORIENTED_EDGE('',*,*,#100,.F.);
#117=ORIENTED_EDGE('',*,*,#100,.T.);
#118=ORIENTED_EDGE('',*,*,#101,.F.);
#119=ORIENTED_EDGE('',*,*,#102,.F.);
#120=ORIENTED_EDGE('',*,*,#101,.T.);
#121=ORIENTED_EDGE('',*,*,#102,.T.);
#122=ORIENTED_EDGE('',*,*,#103,.F.);
#123=ORIENTED_EDGE('',*,*,#104,.F.);
#124=ORIENTED_EDGE('',*,*,#103,.T.);
#125=ORIENTED_EDGE('',*,*,#104,.T.);
#126=ORIENTED_EDGE('',*,*,#96,.F.);
#127=CONICAL_SURFACE('',#142,9.,45.);
#128=ADVANCED_FACE('',(#38,#28),#127,.T.);
#129=ADVANCED_FACE('',(#39,#29),#24,.T.);
#130=ADVANCED_FACE('',(#40,#30),#19,.T.);
#131=ADVANCED_FACE('',(#41,#31),#25,.T.);
#132=ADVANCED_FACE('',(#42,#32),#20,.T.);
#133=ADVANCED_FACE('',(#43),#14,.T.);
#134=ADVANCED_FACE('',(#44),#15,.F.);
#135=ADVANCED_FACE('',(#45,#33),#21,.F.);
#136=ADVANCED_FACE('',(#46,#34),#26,.T.);
#137=ADVANCED_FACE('',(#47,#35),#22,.T.);
#138=ADVANCED_FACE('',(#48,#36),#27,.T.);
#139=ADVANCED_FACE('',(#49,#37),#23,.T.);
#140=CLOSED_SHELL('',(#128,#129,#130,#131,#132,#133,#134,#135,#136,#137,
#138,#139));
#141=AXIS2_PLACEMENT_3D('placement',#213,#165,#166);
#142=AXIS2_PLACEMENT_3D('',#214,#167,#168);
#143=AXIS2_PLACEMENT_3D('',#216,#169,#170);
#144=AXIS2_PLACEMENT_3D('',#218,#171,#172);
#145=AXIS2_PLACEMENT_3D('',#219,#173,#174);
#146=AXIS2_PLACEMENT_3D('',#221,#175,#176);
#147=AXIS2_PLACEMENT_3D('',#222,#177,#178);
#148=AXIS2_PLACEMENT_3D('',#224,#179,#180);
#149=AXIS2_PLACEMENT_3D('',#225,#181,#182);
#150=AXIS2_PLACEMENT_3D('',#227,#183,#184);
#151=AXIS2_PLACEMENT_3D('',#228,#185,#186);
#152=AXIS2_PLACEMENT_3D('',#230,#187,#188);
#153=AXIS2_PLACEMENT_3D('',#231,#189,#190);
#154=AXIS2_PLACEMENT_3D('',#232,#191,#192);
#155=AXIS2_PLACEMENT_3D('',#234,#193,#194);
#156=AXIS2_PLACEMENT_3D('',#235,#195,#196);
#157=AXIS2_PLACEMENT_3D('',#237,#197,#198);
#158=AXIS2_PLACEMENT_3D('',#238,#199,#200);
#159=AXIS2_PLACEMENT_3D('',#240,#201,#202);
#160=AXIS2_PLACEMENT_3D('',#241,#203,#204);
#161=AXIS2_PLACEMENT_3D('',#243,#205,#206);
#162=AXIS2_PLACEMENT_3D('',#244,#207,#208);
#163=AXIS2_PLACEMENT_3D('',#246,#209,#210);
#164=AXIS2_PLACEMENT_3D('',#247,#211,#212);
#165=DIRECTION('axis',(0.,0.,1.));
#166=DIRECTION('refdir',(1.,0.,0.));
#167=DIRECTION('center_axis',(0.,1.,0.));
#168=DIRECTION('ref_axis',(1.,0.,0.));
#169=DIRECTION('center_axis',(0.,1.,0.));
#170=DIRECTION('ref_axis',(1.,0.,0.));
#171=DIRECTION('center_axis',(0.,-1.,0.));
#172=DIRECTION('ref_axis',(1.,0.,0.));
#173=DIRECTION('center_axis',(0.,-1.,0.));
#174=DIRECTION('ref_axis',(0.,0.,-1.));
#175=DIRECTION('center_axis',(0.,1.,0.));
#176=DIRECTION('ref_axis',(1.,0.,0.));
#177=DIRECTION('center_axis',(0.,1.,0.));
#178=DIRECTION('ref_axis',(-1.,0.,0.));
#179=DIRECTION('center_axis',(0.,1.,0.));
#180=DIRECTION('ref_axis',(1.,0.,0.));
#181=DIRECTION('center_axis',(0.,1.,0.));
#182=DIRECTION('ref_axis',(0.,0.,1.));
#183=DIRECTION('center_axis',(0.,1.,0.));
#184=DIRECTION('ref_axis',(1.,0.,0.));
#185=DIRECTION('center_axis',(0.,1.,0.));
#186=DIRECTION('ref_axis',(-1.,0.,0.));
#187=DIRECTION('center_axis',(0.,1.,0.));
#188=DIRECTION('ref_axis',(1.,0.,0.));
#189=DIRECTION('center_axis',(0.,1.,-6.12323399573677E-17));
#190=DIRECTION('ref_axis',(0.,0.,-1.));
#191=DIRECTION('center_axis',(0.,1.,-6.12323399573677E-17));
#192=DIRECTION('ref_axis',(0.,0.,-1.));
#193=DIRECTION('center_axis',(0.,1.,0.));
#194=DIRECTION('ref_axis',(1.,0.,0.));
#195=DIRECTION('center_axis',(0.,1.,0.));
#196=DIRECTION('ref_axis',(-1.,0.,0.));
#197=DIRECTION('center_axis',(0.,1.,0.));
#198=DIRECTION('ref_axis',(1.,0.,0.));
#199=DIRECTION('center_axis',(0.,-1.,0.));
#200=DIRECTION('ref_axis',(0.,0.,-1.));
#201=DIRECTION('center_axis',(0.,1.,0.));
#202=DIRECTION('ref_axis',(1.,0.,0.));
#203=DIRECTION('center_axis',(0.,1.,0.));
#204=DIRECTION('ref_axis',(-1.,0.,0.));
#205=DIRECTION('center_axis',(0.,1.,0.));
#206=DIRECTION('ref_axis',(1.,0.,0.));
#207=DIRECTION('center_axis',(0.,-1.,0.));
#208=DIRECTION('ref_axis',(0.,0.,-1.));
#209=DIRECTION('center_axis',(0.,1.,0.));
#210=DIRECTION('ref_axis',(1.,0.,0.));
#211=DIRECTION('center_axis',(0.,1.,0.));
#212=DIRECTION('ref_axis',(-1.,0.,0.));
#213=CARTESIAN_POINT('',(0.,0.,0.));
#214=CARTESIAN_POINT('Origin',(0.,10.75,0.));
#215=CARTESIAN_POINT('',(-8.75,10.5,1.07156594925393E-15));
#216=CARTESIAN_POINT('Origin',(0.,10.5,0.));
#217=CARTESIAN_POINT('',(-9.25,11.,-1.1327982892113E-15));
#218=CARTESIAN_POINT('Origin',(0.,11.,0.));
#219=CARTESIAN_POINT('Origin',(-9.25,10.5,0.));
#220=CARTESIAN_POINT('',(-8.331,10.5,0.));
#221=CARTESIAN_POINT('Origin',(0.,10.5,0.));
#222=CARTESIAN_POINT('Origin',(0.,14.75,0.));
#223=CARTESIAN_POINT('',(-9.25,19.,0.));
#224=CARTESIAN_POINT('Origin',(0.,19.,0.));
#225=CARTESIAN_POINT('Origin',(-9.225,19.,0.));
#226=CARTESIAN_POINT('',(-9.225,19.,0.));
#227=CARTESIAN_POINT('Origin',(0.,19.,0.));
#228=CARTESIAN_POINT('Origin',(0.,38.6375,0.));
#229=CARTESIAN_POINT('',(-9.22500000000001,58.275,0.));
#230=CARTESIAN_POINT('Origin',(0.,58.275,0.));
#231=CARTESIAN_POINT('Origin',(-1.20528123948121E-14,58.275,0.));
#232=CARTESIAN_POINT('Origin',(0.,59.15,0.));
#233=CARTESIAN_POINT('',(-4.84999999999999,59.15,0.));
#234=CARTESIAN_POINT('Origin',(0.,59.15,0.));
#235=CARTESIAN_POINT('Origin',(0.,29.575,0.));
#236=CARTESIAN_POINT('',(-4.85,0.,0.));
#237=CARTESIAN_POINT('Origin',(0.,0.,0.));
#238=CARTESIAN_POINT('Origin',(-7.15,0.,0.));
#239=CARTESIAN_POINT('',(-7.15,0.,0.));
#240=CARTESIAN_POINT('Origin',(0.,0.,0.));
#241=CARTESIAN_POINT('Origin',(0.,0.15,0.));
#242=CARTESIAN_POINT('',(-7.15,0.3,0.));
#243=CARTESIAN_POINT('Origin',(0.,0.3,0.));
#244=CARTESIAN_POINT('Origin',(-8.331,0.3,0.));
#245=CARTESIAN_POINT('',(-8.331,0.3,0.));
#246=CARTESIAN_POINT('Origin',(0.,0.3,0.));
#247=CARTESIAN_POINT('Origin',(0.,5.4,0.));
#248=UNCERTAINTY_MEASURE_WITH_UNIT(LENGTH_MEASURE(0.01),#252,
'DISTANCE_ACCURACY_VALUE',
'Maximum model space distance between geometric entities at asserted c
onnectivities');
#249=UNCERTAINTY_MEASURE_WITH_UNIT(LENGTH_MEASURE(1.E-6),#252,
'DISTANCE_ACCURACY_VALUE',
'Maximum model space distance between geometric entities at asserted c
onnectivities');
#250=(
GEOMETRIC_REPRESENTATION_CONTEXT(3)
GLOBAL_UNCERTAINTY_ASSIGNED_CONTEXT((#248))
GLOBAL_UNIT_ASSIGNED_CONTEXT((#252,#255,#253))
REPRESENTATION_CONTEXT('','3D')
);
#251=(
GEOMETRIC_REPRESENTATION_CONTEXT(3)
GLOBAL_UNCERTAINTY_ASSIGNED_CONTEXT((#249))
GLOBAL_UNIT_ASSIGNED_CONTEXT((#252,#255,#253))
REPRESENTATION_CONTEXT('','3D')
);
#252=(
LENGTH_UNIT()
NAMED_UNIT(*)
SI_UNIT(.MILLI.,.METRE.)
);
#253=(
NAMED_UNIT(*)
SI_UNIT($,.STERADIAN.)
SOLID_ANGLE_UNIT()
);
#254=DIMENSIONAL_EXPONENTS(0.,0.,0.,0.,0.,0.,0.);
#255=(
CONVERSION_BASED_UNIT('degree',#257)
NAMED_UNIT(#254)
PLANE_ANGLE_UNIT()
);
#256=(
NAMED_UNIT(*)
PLANE_ANGLE_UNIT()
SI_UNIT($,.RADIAN.)
);
#257=PLANE_ANGLE_MEASURE_WITH_UNIT(PLANE_ANGLE_MEASURE(0.01745329252),#256);
#258=SHAPE_DEFINITION_REPRESENTATION(#259,#260);
#259=PRODUCT_DEFINITION_SHAPE('',$,#262);
#260=SHAPE_REPRESENTATION('',(#141),#250);
#261=PRODUCT_DEFINITION_CONTEXT('part definition',#266,'design');
#262=PRODUCT_DEFINITION('U 38','U 38',#263,#261);
#263=PRODUCT_DEFINITION_FORMATION('',$,#268);
#264=PRODUCT_RELATED_PRODUCT_CATEGORY('U 38','U 38',(#268));
#265=APPLICATION_PROTOCOL_DEFINITION('international standard',
'automotive_design',2009,#266);
#266=APPLICATION_CONTEXT(
'Core Data for Automotive Mechanical Design Process');
#267=PRODUCT_CONTEXT('part definition',#266,'mechanical');
#268=PRODUCT('U 38','U 38',$,(#267));
#269=PRESENTATION_STYLE_ASSIGNMENT((#271));
#270=PRESENTATION_STYLE_ASSIGNMENT((#272));
#271=SURFACE_STYLE_USAGE(.BOTH.,#273);
#272=SURFACE_STYLE_USAGE(.BOTH.,#274);
#273=SURFACE_SIDE_STYLE($,(#275));
#274=SURFACE_SIDE_STYLE($,(#276));
#275=SURFACE_STYLE_FILL_AREA(#277);
#276=SURFACE_STYLE_FILL_AREA(#278);
#277=FILL_AREA_STYLE($,(#279));
#278=FILL_AREA_STYLE($,(#280));
#279=FILL_AREA_STYLE_COLOUR($,#281);
#280=FILL_AREA_STYLE_COLOUR($,#282);
#281=COLOUR_RGB('',0.0196078431372549,0.0196078431372549,0.0196078431372549);
#282=COLOUR_RGB('',0.305882352941176,0.36078431372549,0.580392156862745);
ENDSEC;
END-ISO-10303-21;
